Cifra Club

Coração Valente

Anderson Freire

Cifra: Principal
exibições 483.083
Tom: E
[Intro] C#m  F#m7(11)  G#7(4)  G#7  A9  B4

 C#m            A/C#          C#m  C#7(4/9)
Circunstâncias dizem que não dá
 C#m         A/C#        F#m7(11)
Falam que você está tão perto de parar
 B4
Coração valente
B4/D#                   E9
É assim que quero hoje te chamar

C#m           A/C#       C#m  C#7(4/9)
É normal na guerra se ferir
C#m                        F#m7(11)
E pra não morrer às vezes pensa em fugir
 B4
Cego pelo medo
     B/A                      E/G#
Não vê que o gigante é bem menor que a mão de Deus
 D7M          C#7              F#m7(11)
Não quero contar na história que você morreu
    Am6                   E9
Se por um tempo você só adormeceu

     C#m                  F#m7(11)          A9
Coração, por três dias Jesus parou de respirar
             G#7(4)     G#7
Pra fazer você ressuscitar
      C#m               F#m7(11)
Tudo bem, de carne você é
                  A9
Mas sua estrutura é a fé
           G#7(4)     G#7        A9  B4  C#m
Coração valente você não pode parar

C#m           A/C#       C#m  C#7(4/9)
É normal na guerra se ferir
C#m                        F#m7(11)
E pra não morrer às vezes pensa em fugir
 B4
Cego pelo medo
     B/A                      E/G#
Não vê que o gigante é bem menor que a mão de Deus
 D7M          C#7              F#m7(11)
Não quero contar na história que você morreu
    Am6                   E9
Se por um tempo você só adormeceu

 A9/C#  B4/D#  C#m                  F#m7(11)          A9
Co_____ra_____ção, por três dias Jesus parou de respirar
             G#7(4)     G#7
Pra fazer você ressuscitar
      C#m               F#m7(11)
Tudo bem, de carne você é
                  A9
Mas sua estrutura é a fé
           G#7(4)     G#7
Coração valente você não pode parar

[Solo] A9  B4  C#m  ( C#  D#  E  F# )  A9  B4  G#7(4)

Parte 1


E|-----------------------------------------------------------|
B|-----------------------------------------------------------|
G|-4h6~~--6-8-9-11b13--13r11p9-11--11-13b14~-14r13p11-13-----|
D|-----------------------------------------------------------|
A|-----------------------------------------------------------|
E|-----------------------------------------------------------|


Parte 2


E|-14b16r14p12----12-----------------------------------------|
B|-------------14----14p12----14-12\9----12-9----------------|
G|-------------------------13---------11------11-------------|
D|-----------------------------------------------------------|
A|-----------------------------------------------------------|
E|-----------------------------------------------------------|


Parte 3


E|-----------14----------------------------------------------|
B|-/14-16-17----19b21-16b17-17r16-14~--19b21-16b17-17r16-14~-|
G|-----------------------------------------------------------|
D|-----------------------------------------------------------|
A|-----------------------------------------------------------|
E|-----------------------------------------------------------|


Parte 4


E|-------16-20-------16-20-------16-20-----------------------|
B|-19b21-------19b21-------19b21-------19b21r19b21~~\--------|
G|-----------------------------------------------------------|
D|-----------------------------------------------------------|
A|-----------------------------------------------------------|
E|-----------------------------------------------------------|


        ( F#  E  D#  C#  D#  C#  C  A  G# )
Coração
     C#m                  F#m7(11)          A9
Coração, por três dias Jesus parou de respirar
             G#7(4)     G#7
Pra fazer você ressuscitar
      C#m               F#m7(11)
Tudo bem, de carne você é
                  A9
Mas sua estrutura é a fé
           G#7(4)     G#7
Coração valente você não pode parar

     C#m                  F#m7(11)          A9
Coração, por três dias Jesus parou de respirar
             G#7(4)     G#7
Pra fazer você ressuscitar
      C#m               F#m7(11)
Tudo bem, de carne você é
                  A9
Mas sua estrutura é a fé
           G#7(4)     G#7        A9  B4  C#m7(9)
Coração valente você não pode parar

0 comentários

    mostrar mais comentários

    Conseguiu tocar?

    28tocaram1ainda não

    Grave um vídeo tocando Coração Valente e mande pra gente!

    00:00 / 00:00
    outros vídeos desta música
    repetirqualidadeautomática
    Outro vídeos desta música
      00:00 / 00:00
      automática
      OK