Cifra Club

Ninguém Explica Deus

Preto No Branco

Cifra: Principal (violão e guitarra)
exibições 2.160.922
Tom: Em
[Intro] G5(7M)  G7M  Em7(9)  Em9
        C7M  G/B  Am7(9)

Parte 1 de 4
        G5(7M)        G7M
E|------------------------------------------|
B|-------3-------0---------0----------------|
G|-----0-----0---------0-------0------------|
D|---4-----4---4-----4---4---4---4----------|
A|------------------------------------------|
E|-3---------------3------------------------|

Parte 2 de 4
        Em7(9)       Em9
E|------------------------------------------|
B|-------3-------0---------0----------------|
G|-----0-----0---------0-------0------------|
D|---4-----4---4-----4---4---4---4----------|
A|------------------------------------------|
E|-0---------------0------------------------|

Parte 3 de 4
        C7M             G/B
E|-----------0------------3p2---------------|
B|-------0--------------3-----3-------------|
G|-----0---------0----0---------0-----------|
D|---2-----2---2------------------0---------|
A|-3----------------2-----------------------|
E|------------------------------------------|

Parte 4 de 4
        Am7(9)
E|-------------0----0-----------------------|
B|---------0--------0-----------------------|
G|-------5----------5-----------------------|
D|-----5-----5---5--5-----------------------|
A|------------------------------------------|
E|-3/5--------------5-----------------------|


[Primeira Parte – Primeira Estrofe]

 G5(7M)                 G7M
Nada é igual ao Seu redor
 Em7(9)               Em9
Tudo se faz no Seu olhar
 C7M                   G/B
Todo o universo se formou
          Am7(9)
No Seu falar

Parte 1 de 4
        G5(7M)        G7M
E|------------------------------------------|
B|-------3-------0---------0----------------|
G|-----0-----0---------0-------0------------|
D|---4-----4---4-----4---4---4---4----------|
A|------------------------------------------|
E|-3---------------3------------------------|

Parte 2 de 4
        Em7(9)       Em9
E|------------------------------------------|
B|-------3-------0---------0----------------|
G|-----0-----0---------0-------0------------|
D|---4-----4---4-----4---4---4---4----------|
A|------------------------------------------|
E|-0---------------0------------------------|

Parte 3 de 4
        C7M             G/B
E|-----------0------------3p2---------------|
B|-------0--------------3-----3-------------|
G|-----0---------0----0---------0-----------|
D|---2-----2---2------------------0---------|
A|-3----------------2-----------------------|
E|------------------------------------------|

Parte 4 de 4
        Am7(9)
E|-------------0--------0-------------------|
B|---------0------------0-------------------|
G|-------5---------5----5-------------------|
D|-----5-----5---5------5-------------------|
A|------------------------------------------|
E|-3/5---------------5--5-------------------|


[Primeira Parte - Segunda Estrofe]

 G5(7M)            G7M
Teologia pra explicar
Em7(9)              Em9
Ou big bang pra disfarçar
 C7M                    G/B
Pode alguém até duvidar
 Am7(9)               C7M/D
Sei que há um Deus a me guardar

Parte 1 de 4
        G5(7M)        G7M
E|------------------------------------------|
B|-------3-------0---------0----------------|
G|-----0-----0---------0-------0------------|
D|---4-----4---4-----4---4---4---4----------|
A|------------------------------------------|
E|-3---------------3------------------------|

Parte 2 de 4
        Em7(9)       Em9
E|------------------------------------------|
B|-------3-------0---------0----------------|
G|-----0-----0---------0-------0------------|
D|---4-----4---4-----4---4---4---4----------|
A|------------------------------------------|
E|-0---------------0------------------------|

Parte 3 de 4
        C7M                     G/B
E|-----------0------------------------------|
B|-------0---------------0--------3---------|
G|-----0---------0-----0--------0-----------|
D|---2-----2---2-----2--------0-------------|
A|-3---------------3--------2---------------|
E|------------------------------------------|

Parte 4 de 4
        Am7(9)            C7M/D
E|-------------0--------------0-------------|
B|---------0----------------0-0-------------|
G|-------5---------5------5---5-------------|
D|-----5-----5---5------5-----5-------------|
A|--------------------5-------5-------------|
E|-3/5--------------------------------------|


[Pré-Refrão]

  C7M(11+)  D9(11)
E eu tão pequeno e frágil
    Em7(9)
Querendo Sua atenção
Am7(9)   Am7(9)/G
   No silêncio encontro
    F7M(11+)       D/F#
Resposta certa então

Parte 1 de 4
        C7M(11+)         D9(11)
E|-----------0------------------------------|
B|-------0------------------5---------------|
G|-----0---------0--------0-----0-----------|
D|---4-----4---4--------4-----4-----4-------|
A|-3----------------4/5-----------5---------|
E|------------------------------------------|

Parte 2 de 4
        Em7(9)
E|------------------------------------------|
B|---------7-------7--------7---------------|
G|-------0-----0----------0-------0---------|
D|-----5-----5---5------5-------5---5-------|
A|-5/7----------------7-------7-------------|
E|------------------------------------------|

Parte 3 de 4
        Am7(9)           Am7(9)/G
E|-----------0----------------0-------------|
B|-------0----------------0-----------------|
G|-----5---------5------5---------5---------|
D|---5-----5---5------5-----5---5-----------|
A|------------------------------------------|
E|-5----------------3-----------------------|

Parte 4 de 4
        F7M(11+)  D/F#
E|-------0----------------------------------|
B|-----0----------3-------------------------|
G|-----2--------2---------------------------|
D|---3--------0-----------------------------|
A|------------------------------------------|
E|-1--------2-------------------------------|


[Refrão]

G9  G5      G7M
   Dono de toda ciência
Em7(9)        Em9
       Sabedoria e poder
    C7M        G/B
Oh dá-me de beber
 Am7(9)     C7M/D
Da água da fonte da vida

G9  G5           G7M
    Antes que o haja houvesse
Em7(9)        Em9
       Ele já era Deus
    C7M        G/B
Se revelou ao seus
     Am7(9)    C7M/D
Do crente ao ateu

Ninguém explica Deus

Parte 1 de 4
        G9      G5      G7M
E|------------------------------------------|
B|-------0-------3----------0---------------|
G|-----2-------0-------0--------0-----------|
D|---0-------0-------4---4----4---4---------|
A|------------------------------------------|
E|-3-------3-------3------------------------|

Parte 2 de 4
        Em7(9)       Em9
E|------------------------------------------|
B|-------3-------0---------0----------------|
G|-----0-----0---------0-------0------------|
D|---4-----4---4-----4---4---4---4----------|
A|------------------------------------------|
E|-0---------------0------------------------|

Parte 3 de 4
        C7M             G/B
E|-----------0------------3p2---------------|
B|-------0--------------3-----3-------------|
G|-----0---------0----0---------0-----------|
D|---2-----2---2------------------0---------|
A|-3----------------2-----------------------|
E|------------------------------------------|

Parte 4 de 4
        Am7(9)            C7M/D
E|-------------0--------------0-------------|
B|---------0----------0---------------------|
G|-------5---------5--5---5-------5---------|
D|-----5-----5---5----5-5---5---5---5-------|
A|--------------------5---------------------|
E|-3/5--------------------------------------|


(repete as partes 1, 2 e 3)

Parte 04 de 04 (Variação)

        Am7(9)            C7M/D
E|-------------0------0---------------------|
B|---------0----------0---------------------|
G|-------5---------5--5---------------------|
D|-----5-----5---5----5---------------------|
A|--------------------5---------------------|
E|-3/5--------------------------------------|


[Intro com variação] G5(7M)  G7M  Em7(9)  Em9
                     C7M  G/B  Am7(9)  C7M/D

Parte 1 de 4
        G5(7M)        G7M
E|------------------------------------------|
B|-------3-------0---------0----------------|
G|-----0-----0---------0-------0------------|
D|---4-----4---4-----4---4---4---4----------|
A|------------------------------------------|
E|-3---------------3------------------------|

Parte 2 de 4
        Em7(9)       Em9
E|------------------------------------------|
B|-------3-------0---------0----------------|
G|-----0-----0---------0-------0------------|
D|---4-----4---4-----4---4---4---4----------|
A|------------------------------------------|
E|-0---------------0------------------------|

Parte 3 de 4
        C7M             G/B
E|-----------0------------3p2---------------|
B|-------0--------------3-----3-------------|
G|-----0---------0----0---------0-----------|
D|---2-----2---2------------------0---------|
A|-3----------------2-----------------------|
E|------------------------------------------|

Parte 4 de 4
        Am7(9)          C7M/D
E|-------------0----0-----------------------|
B|---------0--------0-----------------------|
G|-------5----------5-----------------------|
D|-----5-----5---5--5-----------------------|
A|------------------5-----------------------|
E|-3/5--------------------------------------|


[Primeira Parte]

 G5(7M)                 G7M
Nada é igual ao Seu redor
 Em7(9)               Em9
Tudo se faz no Seu olhar
 C7M                   G/B
Todo o universo se formou
          Am7(9)
No Seu falar

 G5(7M)            G7M
Teologia pra explicar
Em7(9)              Em9
Ou big bang pra disfarçar
 C7M                    G/B
Pode alguém até duvidar
 Am7(9)               C7M/D
Sei que há um Deus a me guardar

[Pré-Refrão]

  C7M(11+)  D9(11)
E eu tão pequeno e frágil
    Em7(9)
Querendo Sua atenção
Am7(9)   Am7(9)/G
   No silêncio encontro
    F7M(11+)       D/F#
Resposta certa então

[Refrão]

G9  G5      G7M
   Dono de toda ciência
Em7(9)        Em9
       Sabedoria e poder
    C7M        G/B
Oh dá-me de beber
 Am7(9)     C7M/D
Da água da fonte da vida

G9  G5           G7M
    Antes que o haja houvesse
Em7(9)        Em9
       Ele já era Deus
    C7M        G/B
Se revelou ao seus
    Am7(9)      C7M/D
Do gentio ao judeu

Ninguém explica Deus

[Segunda Parte]

G5(7M)               G7M
       Ninguém explica

Ninguém explica Deus
Em7(9)               Em9
       Ninguém explica

Ninguém explica Deus
C7M              G/B
    E se duvida,     ou se acredita
Am7(9)                 F#m7(5-)
       Ninguém explica
            B7   B7/D#
Ninguém explica Deus

Em
   Ninguém explica

Ninguém explica Deus

Dm7(6/9)
         Ninguém explica
G7(4)             G7
      Ninguém explica Deus
C7M              G/B
    E se duvida,     ou se acredita
Am7
    Ninguém explica
D7(4)
      Ninguém explica Deus

Parte 1 de 8
        G5(7M)        G7M
E|------------------------------------------|
B|-------3-------0---------0----------------|
G|-----0-----0---------0-------0------------|
D|---4-----4---4-----4---4---4---4----------|
A|------------------------------------------|
E|-3---------------3------------------------|

Parte 2 de 8
        Em7(9)       Em9
E|------------------------------------------|
B|-------3-------0---------0----------------|
G|-----0-----0---------0-------0------------|
D|---4-----4---4-----4---4---4---4----------|
A|------------------------------------------|
E|-0---------------0------------------------|

Parte 3 de 8
        C7M             G/B
E|-----------0------------3p2---------------|
B|-------0--------------3-----3-------------|
G|-----0---------0----0---------0-----------|
D|---2-----2---2------------------0---------|
A|-3----------------2-----------------------|
E|------------------------------------------|

Parte 4 de 8
        Am7(9)            F#m7(5-)  B7  B7/D#
E|-------------0----------------------------|
B|---------0----------------1---0---7-------|
G|-------5---------5------2-----2---4-------|
D|-----5-----5---5------2-------1---7-------|
A|------------------------------2---6-------|
E|-3/5----------------2---------------------|

Parte 5 de 8
      Em
E|------------------------------0-----------|
B|-------0-------0----------0---------------|
G|-----0-----0----------0-------------------|
D|---2-----2---2------2---2---2---0---------|
A|------------------------------------------|
E|-0----------------0-----------------------|

Parte 6 de 8
        Dm7(6/9)        G7(4)    G7
E|-----------0------------------------------|
B|-------0----------------------------------|
G|-----5---------5--------5--4-----4--------|
D|---3---------4--------3--------3----------|
A|-5-------5----------5--------5------------|
E|------------------3--------3--------------|

Parte 7 de 8
        C7M             G/B
E|-----------0------------3p2---------------|
B|-------0--------------3-----3-------------|
G|-----0---------0----0---------0-----------|
D|---2-----2---2------------------0---------|
A|-3----------------2-----------------------|
E|------------------------------------------|

Parte 8 de 8
        Am7(9)           D7(4)
E|-----------0------3-----------------------|
B|-------1-----1----1---1----1-0------------|
G|-----0---------0--0-0---0------0----------|
D|---2-----2--------0--------2-0---0--------|
A|-0----------------------------------------|
E|------------------------------------------|

[Refrão]

G9  G5      G7M
   Dono de toda ciência
Em7(9)        Em9
       Sabedoria e poder
    C7M        G/B
Oh dá-me de beber
 Am7(9)     C7M/D
Da água da fonte da vida

G9  G5           G7M
    Antes que o haja houvesse
Em7(9)
       Ele já era Deus
    C7M        G/B
Se revelou ao seus
    Am7(9)      C7M/D
Do gentio ao judeu
                 G9
Ninguém explica Deus

0 comentários

mostrar mais comentários

Conseguiu tocar?

131 tocaram 52 ainda não

Grave um vídeo tocando Ninguém Explica Deus e mande pra gente!

00:00 / 00:00
outros vídeos desta música
repetir qualidade Automático
Outros vídeos desta música
00:00 / 00:00
Automático
Capítulos
  • Tocando a música
  • Dicas Iniciais / Equipamentos
  • Acordes da Introdução
  • Tocando a Introdução
  • Introdução - Parte 1 de 4
  • Introdução - Parte 2 de 4
  • Introdução - Parte 3 de 4
  • Introdução - Parte 4 de 4
  • Tocando a Primeira Parte: Primeira Estrofe
  • Primeira Parte: Primeira Estrofe - Parte 1 de 4
  • Primeira Parte: Primeira Estrofe - Parte 2 de 4
  • Primeira Parte: Primeira Estrofe - Parte 3 de 4
  • Primeira Parte: Primeira Estrofe - Parte 4 de 4
  • Acordes da Primeira Parte: Segunda Estrofe
  • Tocando a Primeira Parte: Segunda Estrofe
  • Primeira Parte: Segunda Estrofe - Parte 3 de 4
  • Primeira Parte: Segunda Estrofe - Parte 4 de 4
  • Acordes do Pré-Refrão
  • Tocando o Pré-Refrão
  • Pré-Refrão - Parte 1 de 4
  • Pré-Refrão - Parte 2 de 4
  • Pré-Refrão - Parte 3 de 4
  • Pré-Refrão - Parte 4 de 4
  • Acordes do Refrão
  • Tocando o Refrão
  • Refrão - Parte 1 de 4
  • Refrão - Parte 2 de 4
  • Refrão - Parte 3 de 4
  • Refrão - Parte 4 de 4
  • Refrão - Parte 4 de 4 (variação)
  • Tocando a Introdução (variação)
  • Introdução (variação) - Parte 1 de 4
  • Introdução (variação) - Parte 2 de 4
  • Introdução (variação) - Parte 3 de 4
  • Introdução (variação) - Parte 4 de 4
  • Acordes da Segunda Parte
  • Tocando a Segunda Parte
  • Segunda Parte - Parte 4 de 8
  • Segunda Parte - Parte 5 de 8
  • Segunda Parte - Parte 6 de 8
  • Segunda Parte - Parte 7 de 8
  • Segunda Parte - Parte 8 de 8
  • Acordes do Refrão Final
  • Tocando o Refrão Final
  • Encerramento
  • Ficha Técnica
OK