Amado Meu

André Valadão

 André Valadão Compositor: André Valadão
Tom: F
		
Intro: Bb  F/A  Bb  F/A  Bb  F/A  Gm  C

      F          G/E
Minha vida
Dm    G/E
pensamentos
     F
sentimentos
         Gm             C
Se derramam   diante de ti

    Bb
Amado meu
    F/A
Amado meu
    Gm            C
Desejado da minhalma
     Bb
Amado meu
     F/A
Amado meu
        Gm             C
Corro para os braços teus
    Bb   F/A Bb ( Dm  G/E )
Amado meu
      F    G/E
Meus valores
    Dm  C
conquistas
  F
anseios
     Gm    Bb          C
Se derramam diante de ti
Solo:

E|--------------------------------------------8-10-----|
B|--------------8-5-6~~--------6-8~~--6-8/10-----------|
G|--------5-7-----------5-7~~--------------------------|
D|---5-7-----------------------------------------------|
A|-----------------------------------------------------|
E|-----------------------------------------------------|



E|-----------------------------------------------------|
B|-8~~---8/6--------4/5-6------------------------------|
G|-------------7------------7-5------------------------|
D|--------------------------------7/5-3-----3-5--------|
A|---------------------------------------5-------3-5~--|
E|-----------------------------------------------------|



E|-----------------------------------------------------|
B|--------------------------5-6-8--4/5-6---------------|
G|-------------5-7------5-7---------------7-5~~5/1-----|
D|----------7-------7----------------------------------|
A|---5-8-----------------------------------------------|
E|-----------------------------------------------------|



E|----5-6-8------------9-13-12-10-9----11/0--5-7-------|
B|-------------6/8/10------------------11/0-----5-7----|
G|-------------------------------------11/0-------5-7--|
D|----------7-------7----------------------------------|
A|---5-8-----------------------------------------------|
E|-----------------------------------------------------|


Gm         Am                               Dm
Tudo o que eu tenho é teu
            C
Tudo o que sou entrego a ti
Gm         Am                               Dm
Tudo o que eu tenho é teu
                       C
Tudo o que sou entrego a ti
Gm         Am                  Dm
Tudo o que eu tenho é teu
            Bb       C    D
Tudo o que sou entrego a ti

   C
Amado meu
   G/B
Amado meu
   Am           D
Desejado da minhalma
             C
Amado meu
             G/B
Amado meu
       Am             D
Corro para os braços teus
       C      C G/B C      FINAL: D  E
Amado meu

Comentários 0

Composição: Ana Paula Valadão
Esse não é o compositor? Avise-nos.
Contribuição: brunomilagress Correções: Thi , gadita e mais 3 »
Exibir acordes »
publicidade
fechar