André Valadão

Por Que Ele Vive

248.377 exibições
Tom: D
Intro: A  E  D/F#  D  A  E  D/F#  A  E  D/F#  D  G  D/F#  A


E|------------------12------9-----7-----5-4--------------|
B|---17b19r17-17~------9-10---7-9---5-7-----5-------7~---|
G|--------------------------------------------4b5r4------|
D|-------------------------------------------------------|
A|-------------------------------------------------------|
E|-------------------------------------------------------|


E|--------12--|       e|--------------------------|
B|---9-10-x---|       B|--x-x-8~-x-x-7~-x-x-10~---|
G|---9-9--9---|       G|--x-x-7~-x-x-7~-x-x-9-~---|
D|------------| (5x)  D|--------------------------|
A|------------|       A|--------------------------|
E|------------|       E|--------------------------|


            A  A/C#                 D
Porque Ele vive, posso crer no amanhã
             A              E
Porque Ele vive, temor não há
            A
Mas eu bem sei, eu sei,
               D
Que  a minha vida
          A            E              A
Está nas mãos de meu Jesus que vivo está.

         A              D
Deus enviou seu filho amado
         A            Bm   E
Para morrer no meu lugar
            A                 D      Bm
Na cruz sofreu, por meus pecados,
   C#m  F#m           E/G#            D
Mas o sepulcro vazio está porque Ele vive

             A                    D
Porque Ele vive, posso crer no amanhã
            A              E
Porque Ele vive, temor não há
            A
Mas eu bem sei, eu sei,
               D    Bm
Que  a minha vida
 C#m     F#m           E/G#
Está nas mãos de meu Jesus que vivo está.

Passagem: G  F#m  E/G#  E

             A             D
E quando enfim, chegar a hora,
           A            Bm   E
Em que a morte enfrentarei
           A            D       Bm
Sem medo então, terei vitória,
  C#m    F#m           E/G#              D
verei na glória, o meu Jesus, que vivo está.

            A                   D
Porque Ele vive, posso crer no amanhã
            A              E
Porque Ele vive, temor não há
            A
Mas eu bem sei, eu sei,
              D    Bm
Que  a minha vida
 C#m     F#m           E/G#
Está nas mãos de meu Jesus que vivo está.

Passagem: G  A  G  D/F#  A  E


E|----------10----------------------10--------------|
B|---10-8-7----7--8-x-x-7~---10-8-7----7--8-x-x-7~--|
G|--------------------------------------------------|
D|--------------------------------------------------|
A|--------------------------------------------------|
E|--------------------------------------------------|


E|----------12------------------------------------------------------------|
B|--12-10-9----9--10-x-x-9~---12-x-10-12-x-12-14-x-12-14-x-14-15-x-14-15--|
G|------------------------------------------------------------------------|
D|------------------------------------------------------------------------|
A|------------------------------------------------------------------------|
E|------------------------------------------------------------------------|


E|-----------17----------------------------------------|
B|--17-15-14----14--15-x-x-14~-15-17b19~--7b8-r7-10~---|
G|-----------------------------------------------------|
D|-----------------------------------------------------|
A|-----------------------------------------------------|
E|-----------------------------------------------------|


            A                  D
Porque Ele vive, posso crer no amanhã
            A              E
Porque Ele vive, temor não há
            A
Mas eu bem sei, eu sei,
  A/C#  Bm  C#m  D    Bm
Que a   mi--nha  vida
 C#m     F#m           E/G#
Está nas mãos de meu Jesus que vivo está.

Final: D  A/C#  A
    Sabe quem é o compositor? Envie pra gente.Colaboração e revisão:
    • Matheus
    • Eliel
    • Victor
    • mateus.r.costa.7
    • +11

    Comentários 5

    • Gilbertinho Gilbertinho: Postado em 05/01/2012 03:47

      nao consigo toka no tempo certo...

      • mikael.cesar.7 mikael.cesar.7: Postado em 18/11/2013 14:59

        toca nesse ritmo " 5 para baixo 1 para cima e repete a mesma sequencia, faça os movimentos nessa batida "tum tum tá tum ta. se fizer essa s

      • mikael.cesar.7 mikael.cesar.7: Postado em 18/11/2013 15:10

        Desconsiderem a nota Bm do primeiro verso

      • mikael.cesar.7 mikael.cesar.7: Postado em 19/11/2013 10:03

        toque 5 para baixo 1 para cima depois repita a mesma ordem , faça nessa ritmo de tum.tum.tá.tum.tá se fizer isso dará certo

    • octavio951 octavio951: Postado em 04/03/2011 00:16

      Muito triste essa música, mas não deixa de ser boa.

    conseguiu tocar?

    • ronniearlei.andradeviana
    • mikael.cesar.7
    • claudiane2110
    • rafiinhaxd
    • guinerdd
    • 404servererror
    Luiz Cunha132 visualizações
      ver covers de outras músicas »
      0:00 / 0:00

      Capítulos

        3 versões de guitarradificuldadeexibiçõescontribuição e correção
        1 versão de gaitaexibiçõescontribuição e correção
        play/pausefechar subir/descer velocidade
        6ª corda E5ª corda A4ª corda D3ª corda G2ª corda B1ª corda E
          acordes
          publicidad
          fechar
          ok