Cifra Club

Porque Ele Vive

André Valadão

Cifra: Principal (violão e guitarra)
Tom: A
[Intro] A  E  D/F#  D 
        A  E  D/F#   
        A  E  D/F#  D 
        G  D/F#  A

E|----------------12------9-----7-----------|
B|-17b19r17-17~~-----9-10---7-9---5-7-------|
G|------------------------------------------|
D|------------------------------------------|
A|------------------------------------------|
E|------------------------------------------|

E|-5-4--------------------------------------|
B|-----5-----7~~----------------------------|
G|-------4/6--------------------------------|
D|------------------------------------------|
A|------------------------------------------|
E|------------------------------------------|

[Primeira Parte]

            A   A/C#              D
Porque Ele vive,    posso crer no amanhã
            A               E
Porque Ele vive, temor não há
            A
Mas eu bem sei, eu sei
             D
Que a minha vida
          A             E              A
Está nas mãos de meu Jesus que vivo está

[Segunda Parte]

                        D
Deus enviou seu filho amado
        A         Bm  E
Pra morrer e perdoar
            A               D    B5
Na cruz morreu, por meus pecados
    C#5  F#m
Mas o sepulcro
         E/G#          D
Vazio está porque Ele vive

[Refrão]

            A                  D
Porque Ele vive, posso crer no amanhã
            A               E
Porque Ele vive, temor não há
            A
Mas eu bem sei, eu sei
             D   B5
Que a minha vida
   C#5    F#m           E/G#           G  F#5  G#5  E
Está nas mãos de meu Jesus que vivo está

[Segunda Parte]

            A             D
E quando enfim, chegar a hora
          A             Bm   E
Em que a morte enfrentarei
            A            D    B5
Sem medo então, terei vitória
   C#5     F#m            E/G#            D
Verei na glória, o meu Jesus, que vivo está

[Refrão]

            A                  D
Porque Ele vive, posso crer no amanhã
            A               E
Porque Ele vive, temor não há
            A
Mas eu bem sei, eu sei
             D   B5
Que a minha vida
   C#5    F#m           E/G#           
Está nas mãos de meu Jesus que vivo está

[Solo] G  A  G  D/F#  A  

E|--------10--------------------10----------|
B|-10-8-7----7--8-x-x-7--10-8-7----8-x-x-7--|
G|------------------------------------------|
D|------------------------------------------|
A|------------------------------------------|
E|------------------------------------------|

E|---------12-------------------------------|
B|-12-10-9----9-10-x-x-9-12-x-10-12-x-12-14-|
G|------------------------------------------|
D|------------------------------------------|
A|------------------------------------------|
E|------------------------------------------|

E|------------------------------------17----|
B|-x-12-14-x-14-15-x-14-15---17-15-14-------|
G|------------------------------------------|
D|------------------------------------------|
A|------------------------------------------|
E|------------------------------------------|

E|------------------------------------------|
B|-14--15-x-x-14~-15-17b19~--7b8-r7-10~-----|
G|------------------------------------------|
D|------------------------------------------|
A|------------------------------------------|
E|------------------------------------------|

[Refrão]

       E    A                  D
Porque Ele vive, posso crer no amanhã
            A               E
Porque Ele vive, temor não há
            A
Mas eu bem sei, eu sei
  A/C#   B5   C#5  D   B5
Que a   mi--nha   vida
   C#5    F#m           E/G#
Está nas mãos de meu Jesus que vivo está

[Final] D  A/C#  A
exibições 607.475

0 comentários

mostrar mais comentários

Conseguiu tocar?

23 tocaram 16 ainda não

Grave um vídeo tocando Porque Ele Vive e mande pra gente!

00:00 / 00:00
outros vídeos desta música
repetir qualidade Automático
Outros vídeos desta música
00:00 / 00:00
Automático
OK