Cifra Club

Porque Ele Vive

André Valadão

Cifra: Principal
exibições 397.111
Tom: A
[Intro]  A  E  D/F#  D  A  E  D/F#  A  E  D/F#  D  G  D/F#  A

E|------------------12------9-----7-----5-4--------------|
B|---17b19r17-17~------9-10---7-9---5-7-----5-------7~---|
G|--------------------------------------------4b5r4------|
D|-------------------------------------------------------|
A|-------------------------------------------------------|
E|-------------------------------------------------------|

E|--------12----------|       E|--------------------------|
B|---9-10-x-----------|       B|--x-x-8~-x-x-7~-x-x-10~---|
G|---9-9--9-----------|       G|--x-x-7~-x-x-7~-x-x-9-~---|
D|--------------------|       D|--------------------------|
A|--------------------|       A|--------------------------|
E|--------------------|       E|--------------------------|

            A     A/C#              D
Porque Ele vive, posso crer no amanhã
            A               E
Porque Ele vive, temor não há
            A
Mas eu bem sei, eu sei
              D
Que  a minha vida
          A           E             A
Está nas mãos de meu Jesus que vivo está

         A              D
Deus enviou seu filho amado
        A            Bm   E
Pra me salvar e perdoar
            A                 D    Bm
Na cruz morreu, por meus pecados
 C#m    F#m           E/G#          D
Mas ressurgiu e vivo com o Pai está

            A                    D
Porque Ele vive, posso crer no amanhã
            A               E
Porque Ele vive, temor não há
            A
Mas eu bem sei, eu sei
              D    Bm
Que  a minha vida
C#m   F#m         E/G#
Está nas mãos de meu Jesus que vivo está

G  F#m  E/G#  E

            A             D
E quando enfim, chegar a hora
          A           Bm   E
Em que a morte enfrentarei
         A             D       Bm
Sem medo então, terei vitória
 C#m   F#m          E/G#             D
Verei na glória, o meu Jesus, que vivo está

            A                  D
Porque Ele vive, posso crer no amanhã
            A               E
Porque Ele vive, temor não há
            A
Mas eu bem sei, eu sei
              D    Bm
Que  a minha vida
C#m       F#m           E/G#
Está nas mãos de meu Jesus que vivo está

G  A  G  D/F#  A  E

E|----------10----------------------10------------------------------------|
B|---10-8-7----7--8-x-x-7~---10-8-7----7--8-x-x-7~------------------------|
G|------------------------------------------------------------------------|
D|------------------------------------------------------------------------|
A|------------------------------------------------------------------------|
E|------------------------------------------------------------------------|

E|----------12------------------------------------------------------------|
B|--12-10-9----9--10-x-x-9~---12-x-10-12-x-12-14-x-12-14-x-14-15-x-14-15--|
G|------------------------------------------------------------------------|
D|------------------------------------------------------------------------|
A|------------------------------------------------------------------------|
E|------------------------------------------------------------------------|

E|-----------17-----------------------------------------------------------|
B|--17-15-14----14--15-x-x-14~-15-17b19~--7b8-r7-10~----------------------|
G|------------------------------------------------------------------------|
D|------------------------------------------------------------------------|
A|------------------------------------------------------------------------|
E|------------------------------------------------------------------------|

            A                  D
Porque Ele vive, posso crer no amanhã
            A               E
Porque Ele vive, temor não há
            A
Mas eu bem sei, eu sei,
  A/C#   Bm   C#m   D    Bm
Que a   mi--nha  vida
C#m   F#m         E/G#
Está nas mãos de meu Jesus que vivo está

D  A/C#  A

0 comentários

    mostrar mais comentários

    Conseguiu tocar?

    6tocaram0ainda não

    Grave um vídeo tocando Porque Ele Vive e mande pra gente!

    00:00 / 00:00
    outros vídeos desta música
    repetirqualidadeautomática
    Outro vídeos desta música
      00:00 / 00:00
      automática
      OK