Levels

Avicii

 Avicii
Tom: E
		

E|-9-7-4--------------------------|
B|--------------------------------|
G|-------9-9-9--9-9-9-9-8-8-9-9---|
D|--------------------------------|
A|--------------------------------|
E|--------------------------------|



E|-9-7-4--------------------------|
B|--------------------------------|
G|-------9-9-9--9-9-9-9-----------|
D|----------------------10-10-8-8-|
A|--------------------------------|
E|--------------------------------|


C#m      E
Oh, sometimes.
B                     A
I get a good feeling, yeah!
C#m                  E                              B
And a feeling that I never, never, never, never had before, no no
  A
I get a good feeling, yeah!

C#m      E
Oh, sometimes.
B                     A
I get a good feeling, yeah!
C#m                  E                              B
And a feeling that I never, never, never, never had before, no no
  A
I get a good feeling, yeah!

Comentários 2

  • Ezequiel Ezequiel: Postado em 24/01/2013 22:35

    porra, fácil p krl !

  • markksantos markksantos: Postado em 06/12/2012 23:19

    VIDEO AULA PF!

Composição: Brian Marshall / Chris Bevins / Deighan / Jocke Svensson / Louis Biancaniello / Ryan Follese / Sylvester Bradford / Trife / Victor Chaves
Esse não é o compositor? Avise-nos.
Contribuição: henrychris1 Correções: minhoks e mais 1 »
Exibir acordes »
publicidade
fechar