Cifra Club

Levels

Avicii

Cifra: Principal
exibições 33.168
Tom: E
E|-9-7----------------------------|
B|-----9--------------------------|
G|-------11-9-9--9-9-9-9-8-8-9-9--|
D|--------------------------------|
A|--------------------------------|
E|--------------------------------|

E|-9-7----------------------------|
B|-----9--------------------------|
G|-------11-9-9--9-9-9-9----------|
D|----------------------11-11-9-9-|
A|--------------------------------|
E|--------------------------------|

C#m      E
Oh, sometimes.
B                     A
I get a good feeling, yeah!
C#m                  E                              B
And a feeling that I never, never, never, never had before, no no
  A
I get a good feeling, yeah!

C#m      E
Oh, sometimes.
B                     A
I get a good feeling, yeah!
C#m                  E                              B
And a feeling that I never, never, never, never had before, no no
  A
I get a good feeling, yeah!
Acordes para:

    0 comentários

      mostrar mais comentários

      Conseguiu tocar?

      10tocaram0ainda não

      Grave um vídeo tocando Levels e mande pra gente!

      00:00 / 00:00
      outros vídeos desta música
      repetirqualidadeautomática
      Outro vídeos desta música
        00:00 / 00:00
        automática
        OK