Backstreet Boys

I Want It That Way

203.889 exibições
Tom: A (com acordes na forma de G) Capotraste na 2ª casa
Intro e parte do primeiro verso 2x: Em  C  G 

    Em       C  G
You are, my fire
    Em      C  G
The one, desire,
   Em         C  G
Believe, when I say, 
Em          D   G
I want it that way


E|---------------------------------|---------------------------------|
B|-----0-----1p0-------0-------3---|-----0-----1p0-------0-------3---|
G|-------0-------0-----------0---0-|-------0-------0-----------0---0-|
D|---2-----2---------2-----0-------|---2-----2---------2-----0-------|
A|-----------------3---------------|-----------------3---------------|
E|-0---------------------3---------|-0---------------------3---------|


E|---------------------------------|---------------------------------|
B|-----0-----1p0-------0-------3---|-----0-----1p0-------0-------3---|
G|-------0-------0-----------0---0-|-------0-------0-----------0---0-|
D|---2-----2---------2-----0-------|---2-----2---------2-----0-------|
A|-----------------3---------------|-----------------3---------------|
E|-0---------------------3---------|-0---------------------3---------|


E|---------------------------------|-0------------------2-------3----|
B|-----0-----1p0-------0-------3---|-0---0-----1p0------3-------3----|
G|-------0-------0-----------0---0-|-0-----0-------0----2-------4----|
D|---2-----2---------2-----0-------|-2-2-----2----------0-------5----|
A|-----------------3---------------|-2--------------------------5----|
E|-0---------------------3---------|-0--------------------------3----|


    Em      C    G     Em
But we, are two worlds apart,
         C   G        Em
Can't reach to, your heart,
      C   G       Em        D    G
When you say,That I want it that way

Refrão:
            C                    D     Em
Tell me why,(Ain't nothin' but a heart ache)
            C                    D    Em
Tell me why,(Ain't nothin' but a mist-ake)

Tell me why,
C              D        G
I never wanna hear you say
G     Em     D     G
I    want it that way....

Segundo Verso:

   Em      C  G
Am I your fire
     Em   C   G
Your one desire
       Em        C   G
Yes I know it's too late
      Em        D   G
But I want it that way

Ponte:

Em                      G
Now i can see that we've fallen apart
            C               Am   D9
From the way that it used to be, yeah
Em
No matter the distance
G
I want you to know that
C                   D9
Deep down inside of me
C    D      G
You are my fire
C    D    G
The one desire

You are, you are, you are, you are


E|-----0-----3---3/7-----5-----|
B|-----0-----------------------|
G|-----0-----------------------|
D|-----2-----------------------|
A|-----2-----------------------|
E|-----x-----------------------|


Don't wanna hear you say...

(A tonalidade muda para A)

Refrão:

  D                  E   F#m
Ain't nothin' but a heart ache,
  D                  E  F#m
Ain't nothin' but a mist-ake,
 D            E        A
I never wanna hear you say,
F#m        E   A
I want it that way
         D
Tell me why,
                      E    F#m
(Ain't nothin' but a heart ache)
         D
Tell me why,
                      E  F#m
(Ain't nothin' but a mist-ake)
         D                 E       F#m
Tell me why, I never wanna hear you say
           E   A
I want it that way
         D
Tell me why,
                     E   F#m
Ain't nothin' but a heart ache,
D                   E   F#m
Ain't nothin' but a mist-ake,
         D                 E        A
Tell me why, I never wanna hear you say,(Don't wanna hear you say it)
F#m       E    A
I want it that way
(Sem acordes aqui)
I want it that way...

Comentários 0

140 .
140 cancelar

conseguiu tocar?

  • kelvi.queiros
  • Camila Eduarda
  • ThiagoSampaioMatias
  • camuh
  • Paulo
  • Michael
  • Hellen
  • •••
Douglas244 visualizações
    ver covers de outras músicas »
    0:00 / 0:00

    Capítulos

      1 versão de baixo exibições contribuição e correção
      1 versão de Guitar Proformatodownloadscontribuição
      play/pausefechar subir/descer velocidade
      6ª corda E5ª corda A4ª corda D3ª corda G2ª corda B1ª corda E
        acordes
        publicidad
        fechar
        ok