Children Of The Grave

Black Sabbath

 Black Sabbath
Tom: E
		
Tune down 1 1/2 steps


---------------------------------------------------------------------
---------------------------------------------------------------------
---------------------------------------------------------------------
----------------------------------------------------10--9------------
----------------------------------------------------10--9------------
-0---0----0-0-0----0---0----0-0-0----0---0----0-0-0--8--7------------




-------------------------------------------------
-------------------------------------------------
-------------------------------------------------
-------------------------------------------------
---12/14--17--17-10-----10-/12-------12---------
---10/12--15--15--8------8-/10-------10---------




----------------------------------------------------------------------
----------------------------------------------------------------------
----------------------------------------------------------------------
----------------------------------------------------------------------
-------------------------------------------------------5--------------
--0---0---0-0-0---0---0---0-0-0----0--0---0-0-0----0---3--------------



---15----------
---18^---------
---------------
---------------
---------------
---------------




----------------------------------------------------------------------
----------------------------------------------------------------------
----------------------------------------------------------------------
-----------------------2------------------------2---------------------
--------0--2--0--1--2-----------------0--1--2------1--0---------------
--0--3--------------------------0--3----------------------------------




----------------------------------------------------------------------
----------------------------------------------------------------------
----------------------------------------------------------------------
---9----12--9---------------------9---12--9---------------------------
---7----10--7--9--8---8--9-11-12--7---10--7--12-11--11-12-------------
--------------x7--6---6--7--9-10------------x10--9---9-10-------------



Solo:

|--12--12-----12--12-----12-(12)(12)---------------------------
|--15^-15^----15^-15^----15^(15)(15)15p12----------------------
|----------------------------------------14^-12-12-14-12----12-
|--------------------------------------------------------14----
|--------------------------------------------------------------
|--------------------------------------------------------------



|------12---12-------------------|-----------------------------12-
|----12--15^---15p12-------------|---------------------------12---
|-14^---------------14^-(12--14)-|-12--12--------------12-14^-----
|--------------------------------|---14--14-12-14-12h14-----------
|--------------------------------|--------------------------------
|--------------------------------|--------------------------------



|------12----------------------------|-------------------------------------
|-15^------15p12---------------------|-------------------------------------
|---------------14^-14-12-14--12--12-|-------------------------------------
|-------------------------------14---|-14-12-14--12---12----------------12-
|------------------------------------|-------------14----14-12-10-12/14----
|------------------------------------|-------------------------------------



|---------------12----------------|-----------------------15----
|-------------12--15p12-----------|-------15-12-15-12-/17-------
|-------12-14^---------14^-12--12-|-14-12-----------------------
|-12h14----------------------14---|-----------------------------
|---------------------------------|-----------------------------
|---------------------------------|-----------------------------



|-17/18p15--17/18p15--17/18p15--17/18p15-|-17p15----15-----------------------
|----------------------------------------|------17----1715-------------------
|----------------------------------------|----------------161412-1412----12-
|----------------------------------------|-----------------------------14----
|----------------------------------------|-----------------------------------
|----------------------------------------|-----------------------------------



|------12----12----------------|---------------12-----12----------------
|--------15^-----15p12---------|-----------------15^-----15p12----------
|-14^-----------------14^^--14-|-12----12-14^------------------14^^p12--
|-------------------------14---|-----14---------------------------------
|------------------------------|----------------------------------------
|------------------------------|----------------------------------------



|-------------------------------|--------------12--------------------
|-------------------------------|-----------------15p12--------------
|-14-12----12----------------12-|-14-(12)-14^-----------14p12----12--
|-------14----14p12-14-12h14----|-----------------------------14-----
|-------------------------------|------------------------------------
|-------------------------------|------------------------------------



|-------------------------------------|------------------------------
|-------------------------------------|------------------------------
|-------------------------------------|--------------12--------------
|-14-12-14-12----12-------------------|-----12-12h14----14p12--------
|-------------14----1412-10-12-10-12/|/14---------------------7--4--
|-------------------------------------|------------------------------



Ending

|---12--12----14--14---15--15---16--16---17--17-----------
|---15^-15^---17^-17^--18^-18^--19^-19^--20^---------------
|----------------------------------------------------------
|----------------------------------------------------------
|----------------------------------------------------------
|----------------------------------------------------------

Comentários 0

Composição: Ashanti Douglas / Bill Ward / Billy Steinberg / Bruce D. Miller / Geezer Butler / marcelo Yuca / Ozzy Osbourne / Paul David Hewson / Rodriguinho / Tony Iommi
Esse não é o compositor? Avise-nos.
Exibir acordes »
publicidade
fechar