Tom: G
		
Introdução:  E5  D5  E5  G5  F#5
             E5  D5  E5  (riff 1)
             E5  D5  E5  G5  F#5
             E5  D5  E5  (riff 2)


E|------------------------------------------|
B|------------------------------------------|
G|------------------------------------------|
D|-9--9--7--9----12--11---------------------|
A|-7--7--5--7----10--9----------------------|
E|------------------------------------------|



E|------------------------------------------|
B|---------------14b--12~-------------------|
G|---------------14b--12~-------------------|
D|-9--9--7--9-------------------------------|
A|-7--7--5--7-------------------------------|
E|------------------------------------------|


Oh yeah!


E|------------------------------------------|
B|------------------------------------------|
G|------------------------------------------|
D|-9--9--7--9----12--11---------------------|
A|-7--7--5--7----10--9----------------------|
E|------------------------------------------|



E|------------------------------------------|
B|------------------------------------------|
G|------------------------------------------|
D|-9--9--7--9--------7h9p7h9p7h9p...--------|
A|-7--7--5--7----5h7------------------------|
E|------------------------------------------|


Primeira Parte:

 E5       D5  E5  G5  F#5
Some people  say my  love
 E5     D5  E5  (riff 3)
Cannot be true

  E5      D5    E5  G5  F#5
Please believe me, my  love
E5         D5  E5  (riff 2)
And I'll show you

E5      D5   E5   G5    F#5
I will give you those things
 E5         D5  E5  (riff 3)
You thought un_real

  E5       D5  E5     G5  F#5
The sun, the  moon, the stars
E5        D5  E5
All bear my  seal

Interlúdio:


E|----------------------------------------------------|
B|----------------------------------------------------|
G|----------------------------------------------------|  (3x)
D|-------5-7-7p5--------------------------------------|
A|-5h7~----------7-5h7--------------------------------|
E|----------------------------------------------------|



E|----------------------------------------------------|
B|-12-----12-----12---\-------------------------------|
G|-14b16--14b16--14b16\-------------------------------|
D|----------------------------------------------------|
A|----------------------------------------------------|
E|----------------------------------------------------|


Introdução:  E5  D5  E5  G5  F#5
             E5  D5  E5 (riff 1)
             E5  D5  E5  G5  F#5
             E5  D5  E5 (riff 2)

Oh yeah!

Segunda Parte:

 E5     D5  E5  G5   F#5
Follow me  now  and you
 E5       D5  E5  (riff 3)
Will not re_gret

 E5       D5  E5   G5  F#5
Leaving the  life you led
 E5     D5  E5  (riff 2)
Before we  met

 E5       D5  E5    G5  F#5
You are the  first to  have
  E5      D5  E5  (riff 3)
This love of mine

 E5  D5  E5   G5  F#5
Forever with me  till
  E5    D5  E5
The end of time

Terceira Parte:

E5                D5          C5        B5
   Your love for me has just got to be real
E5              D5              C5       B5
   Before you know the way I'm going to feel
C5               B5
   I'm going to feel
C5               B5
   I'm going to feel

Introdução:  E5  D5  E5  G5  F#5
             E5  D5  E5 (riff 1)
             E5  D5  E5  G5  F#5
             E5  D5  E5 (riff 2)

Oh yeah!

Quarta Parte:

 E5    D5   E5  G5   F#5
Now I have you with me
E5     D5  E5   (riff 3)
Under my  power

E5         D5     E5  G5  F#5
Our love grows stron_ger now
 E5      D5  E5  (riff 2)
With every  hour

 E5     D5  E5  G5     F#5
Look into  my   eyes, you'll
 E5     D5  E5  (riff 3)
See who I   am

 E5     D5  E5  G5  F#5
My name is Lu__ci__fer
  E5         D5  E5
Please take my  hand

(Interlúdio)

Solo:

(Guitarra 1)

E|----------------------------------------------------|
B|----------------------------------------------------|
G|-------------------------------4--4~-4/7--7~-7/9--9~|
D|-5--4h5p4----5--4h5p4----4h5-7----------------------|
A|----------7-----------7-----------------------------|
E|----------------------------------------------------|



E|----------------------------------------------------|
B|----------------------------------------------------|
G|-9b11--9b11--9b11r--7h9p7~--------------------------|
D|----------------------------------------------------|
A|----------------------------------------------------|
E|----------------------------------------------------|



E|----------------------------------------------------|
B|--------------------8--10p8-----8--10--10b12r10p8---|
G|-7--7/9-9-9-7/9-9-9----------9----------------------|
D|----------------------------------------------------|
A|----------------------------------------------------|
E|----------------------------------------------------|



E|----------------------------------------------------|
B|-10-----10b12r10p8--10--8--10b12r10p8--10--8--------|
G|-----9----------------------------------------------|
D|----------------------------------------------------|
A|----------------------------------------------------|
E|----------------------------------------------------|



E|----------------------------------------------------|
B|-10b12~--10b12~---8h10--8h10--8~/-------------------|
G|----------------------------------------------------|
D|----------------------------------------------------|
A|----------------------------------------------------|
E|----------------------------------------------------|



E|----------------------------------------------------|
B|----------------------------------------------------|
G|-------------------4--4~-4/7--7/9--9~-9/12--12~-----|
D|-5--4h5p4----4h5h7----------------------------------|
A|----------7-----------------------------------------|
E|----------------------------------------------------|



E|----------------------12----------------------------|
B|-------------------12----12-15b17r15--12------------|
G|-12h14--14b16--b16----------------------------------|
D|----------------------------------------------------|
A|----------------------------------------------------|
E|----------------------------------------------------|



E|-15p12----15p12----15p12----15p12----15b17~---------|
B|-------12-------12-------12-------12----------------|
G|----------------------------------------------------|
D|----------------------------------------------------|
A|----------------------------------------------------|
E|----------------------------------------------------|



E|-15--12h15p12-----12------------------12------------|
B|--------------15------15p12--------12----12--15b17~-|
G|----------------------------14b16-------------------|
D|----------------------------------------------------|
A|----------------------------------------------------|
E|----------------------------------------------------|



E|----------------------------------------------------|
B|-b17r15p12-------12-15p12---------------------------|
G|-----------14b16----------14b16-14b16~--------------|
D|----------------------------------------------------|
A|----------------------------------------------------|
E|----------------------------------------------------|



E|----------------------------------------------------|
B|----------------------------------------------------|
G|-14b16--12h14p12----12--14b16r14p12-----------------|
D|-----------------14---------------------------------|
A|----------------------------------------------------|
E|----------------------------------------------------|


Introdução:  E5  D5  E5  G5  F#5
             E5  D5  E5 (riff 1)
             E5  D5  E5  G5  F#5
             E5  D5  E5 (riff 2)

Oh yeah!

Quinta Parte:

 E5     D5  E5  G5   F#5
Follow me  now  and you
 E5       D5  E5  (riff 3)
Will not re_gret

 E5       D5  E5   G5  F#5
Leaving the  life you led
 E5     D5  E5  (riff 2)
Before we  met

 E5       D5  E5    G5  F#5
You are the  first to  have
  E5      D5  E5  (riff 3)
This love of mine

 E5  D5  E5   G5  F#5
Forever with me  till
  E5    D5  E5
The end of time

Sexta Parte:

E5                D5          C5        B5
   Your love for me has just got to be real
E5              D5              C5       B5
   Before you know the way I'm going to feel
C5               B5
   I'm going to feel
C5               B5
   I'm going to feel

Introdução:  E5  D5  E5  G5  F#5
             E5  D5  E5 (riff 1)
             E5  D5  E5  G5  F#5
             E5  D5  E5 (riff 2)

Oh yeah!

Sétima Parte:

 E5    D5   E5  G5   F#5
Now I have you with me
E5     D5  E5   (riff 3)
Under my  power

E5         D5     E5  G5  F#5
Our love grows stron_ger now
 E5      D5  E5  (riff 2)
With every  hour

 E5     D5  E5  G5     F#5
Look into  my   eyes, you'll
 E5     D5  E5  (riff 3)
See who I   am

 E5     D5  E5  G5  F#5
My name is Lu__ci__fer
  E5         D5  E5
Please take my  hand

(Interlúdio)

(Solo)

Comentários 19

  • yvisrock yvisrock: Postado em 26/04/2014 16:35

    Vinicius dias é o melhor :3

  • ghostbusters ghostbusters: Postado em 17/04/2014 11:45

    @lukewilkshire.lukwill: Essa música foi lançada em 1970, a música Cacaine foi laçada em 1976, e é do JJ Cale.

  • reinan.franca.1 reinan.franca.1: Postado em 15/03/2014 10:38

    O cara toca dimais

  • lukewilkshire.lukwill lukewilkshire.lukwill: Postado em 03/02/2014 11:58

    A introdução é plágio de Cocaine, do Eric Clapton

    • peremix peremix: Postado em 10/08/2014 09:36

      é o contrário, NIB veio antes de Cocaine

  • Pedro Pedro: Postado em 20/12/2013 13:08

    curti mt i ajudo bastante essa video aula

    • vinicius342 vinicius342: Postado em 24/07/2014 00:23

      cocaine:ano de lançamento 1977,nib:1970...

  • Ricardinho Ricardinho: Postado em 16/12/2013 19:47

    cara pra q vídeo poha deviam tah agradecendo q ela tah ai

  • Guilherme Guilherme: Postado em 14/07/2013 19:32

    Felipe Marks foi demitido foi ? n tem mais aula de contrabaixo

  • Marcus Marcus: Postado em 14/07/2013 11:02

    CADÊ A VÍDEO AULA ?

Exibindo 10 de 19 comentários Mostrar mais ver todos »
Composição: Sabe quem é o compositor? Envie pra gente. Contribuição: v.inny Correções: Breno Bernardes »
Exibir acordes »
publicidade
fechar