Violence

Blink 182

 Blink 182
Tom: G#
		
Intro:  B (8x) faça isso umas 12 vezes


E|-------------
B|-------------
G|-------------
D|---(9)-------
A|---(9)-------
E|---(7)-------



   B (8x)   C# (8x) G# (8x) A# (8x) D# (8x) C# (8x) G# (8x) A# (8x)
E|-------------------------------------------------------------------------|
B|-------------------------------------------------------------------------|
G|---(4)---(6)--------------------------(8)-------(6)----------------------|
D|---(4)---(6)----(6)---------(8)-------(8)-------(6)----(6)------(8)------|
A|---(2)---(4)----(6)---------(8)-------(6)-------(4)----(6)------(8)------|
E|----------------(4)---------(6)------------------------(4)-----(6)-------|


B 
Six bottles went down the drain
One hour's a waste of time
B
I'd ask if you feel the same
Still pushin' that chance to try
B
Your breath in this cool room chill
Long hair that blows side to side
B
You speak and make time stand still
And each time you walk right on by

B (8x)   C# (8x)   G# (8x)   A# (8x)
Like violence you have me forever and after
B (8x)   C# (8x)   G# (8x)   A# (8x)
Like violence you kill me forever and after

B
Can't count all the eyes that stare
Can't count all the things they see
B
She kills with no life to spare
Just victims are left to bleed
B
One drink and the pain goes down
Soft shadows lay by her feet
B
Lay soft as you slowly drown
Lay still as you fall asleep
(fall asleep)

B (8x)   C# (8x)   G# (8x)   A# (8x)
Like violence you have me forever and after
B (8x)   C# (8x)   G# (8x)   A# (8x)
Like violence you kill me forever and after


             B (8x)
E|----------------| 
B|----------------| 
G|------------(4)-| 
D|--4--2------(4)-| 
A|------------(2)-| 
E|----------------|       umas 7 vesez



Like violence you have me forever and after
Like violence you kill me 
Like violence you have me forever and after

B (8x)   C# (8x)    G# (8x)    A# (8x)
Like violence you have me forever and after
B (8x)   C# (8x)    G# (8x)    A# (8x)
Like violence you kill me forever and after 2x

Final:  B (8x) faça isso umas 5 vesez

Comentários 0

Composição: Perry Botkin Jr. / Spencer Albee
Esse não é o compositor? Avise-nos.
Contribuição: ReNaN Correções: naah e mais 1 »
Exibir acordes »
publicidade
fechar