Cifra Club

Aprenda

Violence

Blink-182

Cifra: Principal (violão e guitarra)
tom: B (forma dos acordes no tom de A) Capotraste na 2ª casa
[Intro]  

   A5
E|---------------------|
B|---------------------|
G|---------------------|
D|-777-7--777-7--------|
A|-000-0--000-0--------|
E|-555-5--555-5--------|

   A5            B5            F#5           G#5
E|---------------------------------------------------------|
B|---------------------------------------------------------|
G|---------------------------------------------------------|
D|-777-7--7-7777-999-9--9-9999-444-4--4-4444-666-6--6-6666-|
A|-000-0--0-0000-000-0--0-0000-000-0--0-0000-000-0--0-0000-|
E|-555-5--5-5555-777-7--7-7777-222-2--2-2222-444-4--4-4444-|

[Verso 01]

   A5
E|---------------------|
B|---------------------|
G|---------------------|
D|-7~~~~---------------|
A|-0~~~~---------------|
E|-5~~~~---------------|

A5 
Six bottles went down the drain
One hour's a waste of time
I'd ask if you feel the same
Still pushin' that chance to try
Your breath in this cool room chill
Long hair that blows side to side
You speak and make time stand still
And each time you walk right on by

[Refrão]

   A5            B5            F#5           G#5
E|---------------------------------------------------------|
B|---------------------------------------------------------|
G|---------------------------------------------------------|
D|-777-7--7-7777-999-9--9-9999-444-4--4-4444-666-6--6-6666-|
A|-000-0--0-0000-000-0--0-0000-000-0--0-0000-000-0--0-0000-|
E|-555-5--5-5555-777-7--7-7777-222-2--2-2222-444-4--4-4444-|

A5               B5          F#5           G#5
   Like violence    you have     me forever   and after
A5               B5             F#5        G#5
   Like violence    you kill me    forever    and after

[Verso 02]

   A5
E|---------------------|
B|---------------------|
G|---------------------|
D|-7~~~~---------------|
A|-0~~~~---------------|
E|-5~~~~---------------|

A5
Can't count all the eyes that stare
Can't count all the things they see
She kills with no life to spare
Just victims are left to bleed
One drink and the pain goes down
Soft shadows lay by her feet
Lay soft as you slowly drown
Lay still as you fall asleep
(fall asleep)

[Refrão]

   A5            B5            F#5           G#5
E|---------------------------------------------------------|
B|---------------------------------------------------------|
G|---------------------------------------------------------|
D|-777-7--7-7777-999-9--9-9999-444-4--4-4444-666-6--6-6666-|
A|-000-0--0-0000-000-0--0-0000-000-0--0-0000-000-0--0-0000-|
E|-555-5--5-5555-777-7--7-7777-222-2--2-2222-444-4--4-4444-|

A5               B5          F#5           G#5
   Like violence    you have     me forever   and after
A5               B5            F#5         G#5
   Like violence    you kill me    forever    and after

[Ponte]

E|-----------------------------------------|
B|-----------------------------------------|
G|-----------------------------------------|
D|-----------------------------------------|
A|----7--7---------------7-----------------|
E|-5-------5-4-5--4-5-7----5-4-5--4-5-7----|

Like violence you have me forever and after
Like violence you kill me 
Like violence you have me forever and after

[Refrão]

   A5            B5            F#5           G#5
E|---------------------------------------------------------|
B|---------------------------------------------------------|
G|---------------------------------------------------------|
D|-777-7--7-7777-999-9--9-9999-444-4--4-4444-666-6--6-6666-|
A|-000-0--0-0000-000-0--0-0000-000-0--0-0000-000-0--0-0000-|
E|-555-5--5-5555-777-7--7-7777-222-2--2-2222-444-4--4-4444-|

A5               B5          F#5           G#5
   Like violence    you have     me forever   and after
A5               B5            F#5         G#5
   Like violence    you kill me    forever    and after

[Final]

   A5
E|---------------------|
B|---------------------|
G|---------------------|
D|-777-7--777-7--------|
A|-000-0--000-0--------|
E|-555-5--555-5--------|
Composição de blink-182
Colaboração e revisão:
36.884 exibições
    • ½ Tom
    • A
    • Bb
    • B
    • C
    • Db
    • D
    • Eb
    • E
    • F
    • F#
    • G
    • Ab
  • Adicionar à lista

    0 comentários

    Ver todos os comentários

    Conseguiu tocar?

    1 Tocaram 0 Ainda não

    Grave um vídeo tocando Violence e nos envie!

    00:00 / 00:00
    outros vídeos desta música
    repetir qualidade Automático
    Outros vídeos desta música
    00:00 / 00:00
    Automático

    Cifra Club Pro

    Aproveite o Cifra Club com benefícios exclusivos e sem anúncios
    Cifra Club Pro
    Aproveite o Cifra Club com benefícios exclusivos e sem anúncios
    OK