Hoje à Noite

Calcinha Preta

 Calcinha Preta
Tom: E
		
Intro: Bm G A
      (F# G# A#)

Solo:

E|-7-7-7-10-12-----------------------7----12-10--------|
B|-------------14-14-14-14-12-10-8-7---12-------14-----|
G|-----------------------------------------------------|
D|-----------------------------------------------------|
A|-----------------------------------------------------|
E|-----------------------------------------------------|



Bm       G      A               Bm      G    A  (F# G# A#)
 A noite passa devagar estou aqui deitado só
Bm       G      A                Bm      G      A (F# G# A#)
 no tic-tac do relógio me aqueço com o seu lençol
   G            F#m         Em     D
 gostaria de saber onde você está
   G         F#m             Em   A    D   D4 D D4
 hoje a noite você não vai acordar sozinha...
 Em  C G          D               Em
 amor eu sempre estive sozinha
  C             G        D
 eu nunca me importei até te conhecer
 Em C    G          D
 e agora você me escolhe
 Bm   C            D
 como deixá-lo sozinho?
 Bm   C            D
 Como deixá-lo sozinho?
Bm       G      A                         Bm     G         A  (F# G# A#)
 Você não sabe o quanto quis te abraçar, beijar, tocar, amar você
Bm       G      A                      Bm     G         A  (F# G# A#)
 Não sabe quanto eu esperei dormir como você hoje a noite
  G            F#m         Em     D
 Mas o segredo ainda está comigo
     G      F#m       Em        A    D   D4 D D4
 O amor que eu sinto por você é demais...
 Em  C G   D                Em
 amor eu sempre estive sozinha
C  G     D
 eu nunca me importei até te conhecer
 Em  C G   D
 e agora você me escolhe
Bm     C            D
 como deixá-lo sozinho?
Bm    C             D
 Como deixá-lo sozinho?

 Base do solo:  Em  C  G  D


E|---------------------------------------------14----14----14----14----- -------------
B|--14h16--14h16--14----14h16-~~----------14----14----12----11---------- -----------
G|-----------------------15--------------------------------------------- --13-~~-------
D|---------------------------------------------------------------------- --------------
A|---------------------------------------------------------------------- --------------
E|---------------------------------------------------------------------- --------------



E|---------------------------------------------------------------------- --------------
B|-----------------------------------------14-16-14-------17/18--17/18-- 16-14---------
G|----------------------15-16-~~\-------------------16-15--------------- ------16-~~---
D|-16-15-13---13-16-------------------------------------------------- --------------
A|---------------------------------------------------------------------- --------------
E|---------------------------------------------------------------------- --------------



E|------------------------------------------------9--------------9------ ---------------
B|---------14--12--11h12p11\9h11--------------11--9~~-----9\7~~--------- -------------
G|-----11--------------------------------------------------------------- --------------
D|-/11------------------------------------------------------------------ --------------
A|---------------------------------------------------------------------- --------------
E|---------------------------------------------------------------------- --------------



E|-9---9----9-9/11-9-11/13-----13/14-16-16-------16-14-16/20~~---------- --------------
B|---7------------------------------------------------------------------ --------------
G|---------------------------------------------------------------------- --------------
D|---------------------------------------------------------------------- --------------
A|---------------------------------------------------------------------- --------------
E|---------------------------------------------------------------------- --------------


Em  C G          D               Em
 amor eu sempre estive sozinha
  C             G        D
 eu nunca me importei até te conhecer
 Em C    G          D
 e agora você me escolhe
Bm    C              D
 como deixá-lo sozinho?
Bm    C              D
 Como deixá-lo sozinho?
Bm       G      A                    Bm       G      A  (F# G# A#)
 Não sabe quanto eu esperei dormir como você hoje a noite...

Comentários 2

  • Rafaelmorais95 Rafaelmorais95: Postado em 16/04/2014 14:21

    Para ficar num tom correto basta descer meio tom! :D Aproveite!

  • jumento jumento: Postado em 31/12/2011 14:44

    kkkkkkkkkkk
    ta errada!!!

Composição: Sabe quem é o compositor? Envie pra gente. Contribuição: Marcelo Negrão Correções: João »
Exibir acordes »
publicidade
fechar