Cifra Club

Hoje à Noite

Calcinha Preta

Cifra: Principal (violão e guitarra)
exibições 112.345
Tom: D
Intro: Bm G A
      (F# G# A#)

Solo:

E|-7-7-7-10-12-----------------------7----12-10--------|
B|-------------14-14-14-14-12-10-8-7---12-------14-----|
G|-----------------------------------------------------|
D|-----------------------------------------------------|
A|-----------------------------------------------------|
E|-----------------------------------------------------|
 
Bm          G      A                 Bm      G    A  (F# G# A#)
 A noite passa devagar estou aqui deitado só
Bm       G      A                   Bm      G      A (F# G# A#)
 no tic-tac do relógio me aqueço com o seu lençol
   G            F#m         Em     D
 gostaria de saber onde você está
   G         F#m             Em   A    D   D4 D D4
 hoje a noite você não vai acordar sozinha...
 Em  C G          D               Em
 amor eu sempre estive sozinha
  C             G        D
 eu nunca me importei até te conhecer
 Em C    G          D
 e agora você me escolhe
 Bm   C            D
 como deixá-lo sozinho?
 Bm   C            D
 Como deixá-lo sozinho?
Bm          G      A                         Bm     G         A  (F# G# A#)
 Você não sabe o quanto quis te abraçar, beijar, tocar, amar você
Bm         G      A                      Bm     G         A  (F# G# A#)
 Não sabe quanto eu esperei dormir como você hoje a noite
  G            F#m         Em     D
 Mas o segredo ainda está comigo
     G      F#m       Em        A    D   D4 D D4
 O amor que eu sinto por você é demais...
 Em  C G   D                Em
 amor eu sempre estive sozinha
C  G     D
 eu nunca me importei até te conhecer
 Em  C G   D
 e agora você me escolhe
Bm     C            D
 como deixá-lo sozinho?
Bm    C             D
 Como deixá-lo sozinho?

 Base do solo:  Em  C  G  D

E|---------------------------------11-14--14--14--14----------------|
B|--14h16-14h16--14----14h16~-----------14--12--11------------------|
G|------------------15------------------------------13--------------|
D|------------------------------------------------------------------|
A|------------------------------------------------------------------|
E|------------------------------------------------------------------|

E|------------------------------------------------------------------|
B|-----------------12~---14-16-14h16p14-------16b18-16b18r16p14-----|
G|--11p10----11-13----------------------16-15-------------------16--|
D|--------13--------------------------------------------------------|
A|------------------------------------------------------------------|
E|------------------------------------------------------------------|

E|------------------------------------------------------------------|
B|-------14-12-11h12p11---11~--12-11-------14----------14--14-------|
G|-----11---------------13-----------13------13-11-------11---------|
D|--/13-------------------------------------------------------------|
A|------------------------------------------------------------------|
E|------------------------------------------------------------------|

E|-------------------13h14-14/16-16-16/14-13-14/21-21-21/0----------|
B|--14/16-14-16b18--------------------------------------------------|
G|------------------------------------------------------------------|
D|------------------------------------------------------------------|
A|------------------------------------------------------------------|
E|------------------------------------------------------------------|

Em  C G          D               Em
 amor eu sempre estive sozinha
  C             G        D
 eu nunca me importei até te conhecer
 Em C    G          D
 e agora você me escolhe
Bm    C              D
 como deixá-lo sozinho?
Bm    C              D
 Como deixá-lo sozinho?
Bm       G      A                    Bm       G      A  (F# G# A#)
 Não sabe quanto eu esperei dormir como você hoje a noite...
Acordes para:
    Colaboração e revisão:

    0 comentários

      mostrar mais comentários

      Conseguiu tocar?

      2tocaram0ainda não

      Grave um vídeo tocando Hoje à Noite e mande pra gente!

      00:00 / 00:00
      outros vídeos desta música
      repetirqualidadeAutomático
      Outro vídeos desta música
        00:00 / 00:00
        OK