Alma Transparente

Chico Rey e Paraná

 Chico Rey e Paraná
Tom: E
		
Intro: B7  E  B7  F#m  B7  E  B7


E|-----6/7---5---2-------------------------------------|
B|-0-----------------4----0--0---10---9--9---5---2---0-|
G|-----7/8---6---2-------------------------------------|
D|-1-----------------4----1--1---11---9--9---6---2---2-|
A|-----------------------------------------------------|
E|-----------------------------------------------------|



E|--4/5--4---4/5---------------------------------------------------------------------------|
B|--5----5---5------0---2/4---2---4---2---4---5---7--7--9---7--5--5------------------------|
G|-----------------------------------------------------------------------------------------|
D|-----=------------0---2/4---2---4---2---4---6---7--7--9---7--6--6------------------------|
A|--------------------------------------------------------------------------------2--4--2--|
E|---------------------------------------------------------------------0--2--4-------------|


    E
Te dei meu mundo  minha vida  o meu carinho
         B7
Te dei amor e paz
   F#m    B7            F#m      B7     F#m      B7
Te dei afeto  atenção  te dei cuidados
          E   E7
Tão especiais
            A
Te dei meus olhos  minhas mãos  te dei meu corpo
    E               C#m
Te dei meu coração
         B7
Porém fiquei a ver navios neste mar
               E     E7
De angústia e solidão
           A
É sempre assim
A gente chega de alma transparente
              F#m  B7
Joga aberto e limpo
            E
Como eu joguei
                             B7
Mas a pessoa traz cartas na manga
                F#m  B7
Blefa e ganha o jogo
            E   E7
Que não mereceu
          A
Eu vou mudar
                               F#m  B7
Vou revelar meu pensamento aos outros
             E
Vou viver assim
                         B7
Vou assumir uma outra postura
            F#m  B7
Vou viver melhor
            E
Vou pensar mais em mim

[B7  E  B7  F#m  B7  E  E7]

            A
É sempre assim ........
143.656 exibições

Comentários 0

Composição: Antonio Victor
Esse não é o compositor? Avise-nos.
Contribuição: Teodoro Correções: tomasi e mais 2 »
Exibir acordes »
publicidade
fechar