Cheiro de Shampoo

Chrystian & Ralf

 Chrystian & Ralf
Tom: G
		
(intro) G D7 C G D7

Solo


E|--7-----8--7----10-8-7--------|--------7--------8-7-----------|
B|-----------------------10-8-7-|--10-------10--------10-8-7-10-|
G|------------------------------|-------------------------------|
D|------------------------------|-------------------------------|
A|------------------------------|-------------------------------|
E|------------------------------|-------------------------------|



-------------------------7-8-|--7----8--7------8-7------|
--8----10--8------7-8-10-----|---------------------10-8-|
----------------9------------|--------------------------|
-----------------------------|--------------------------|
-----------------------------|--------------------------|
-----------------------------|--------------------------|



--10----10~----10~--------|
--------------------------|
--------------------------|
--------------------------|
--------------------------|
--------------------------|



               G                      Em
Você me dá um beijo me pede pra esperar
               C               D7
Entra "pro" seu banho diz que já  vem se deitar
G                    Em
Deixa a porta aberta vai tirando a roupa
C                        D7
Eu fico olhando tudo com água na boca
    Em                                      Bm
Mas esses minutos parecem bem mais que uma hora
                     C                                 G
Você não vem, você demora e fica alisando seu corpo inteiro
  Em                                   Bm
Então o desejo de amar incendeia meu peito
                                   C
Não consigo esperar, não tem outro jeito
            D7                   G
Mergulho também, com você no chuveiro
D7           G                    D7
Esse amor molhado faz tudo acontecer
                 C                        D7
Você me deixa atiçado pra te dar mais prazer
                G                D7
Eu cubro com espumas o seu corpo nu
    B7                 C                 D7           G
Nós dois embaixo do chuveiro amor com cheiro de "shampoo"
C D7

(intro) G D7 C G D7

Segundo solo


--7------------8--7----10-8-7--------|--------7--------8-7-----------|
------------------------------10-8-7-|--10-------10--------10-8-7-10-|
-------------------------------------|-------------------------------|
-------------------------------------|-------------------------------|
-------------------------------------|-------------------------------|
-------------------------------------|-------------------------------|




-------------------------7-8-|--7----8--7------8-7------|--10-----------------|
--8----10--8------7-8-10-----|---------------------10-8-|---------------------|
----------------9------------|--------------------------|---------------------|
-----------------------------|--------------------------|---------------------|
-----------------------------|--------------------------|---------------------|
-----------------------------|--------------------------|---------------------|




-----------------7----7-8-10-8-10-----12~|
------7-8-7-8-10---10--------------------|
--7-9------------------------------------|
-----------------------------------------|
-----------------------------------------|
-----------------------------------------|



     Em                                      Bm
Mas esses minutos parecem bem mais que uma hora
                     C                                G
Você não vem, você demora e fica alisando seu corpo inteiro
   Em                                  Bm
Então o desejo de amar incendeia meu peito
                                     C
Não consigo esperar, não tem outro jeito
             D7                  G
Mergulho também, com voce no chuveiro
D7            G                  D7
Esse amor molhado faz tudo acontecer
                C                         D7
Você me deixa atiçado pra te dar mais prazer
               G                 D7
Eu cubro com espumas o seu corpo nu
    B7                 C
Nós dois embaixo do chuveiro
         D7             G      D7
Amor com cheiro de "shampoo"
             G                    D7
Esse amor molhado faz tudo acontecer
                C                         D7
Você me deixa atiçado pra te dar mais prazer
                G                D7
Eu cubro com espumas o seu corpo nu
     B7                G
Nós dois embaixo do chuveiro
         D7              G
Amor com cheiro de "shampoo"
183.036 exibições

Comentários 0

Composição: Cecílio Nena
Esse não é o compositor? Avise-nos.
Contribuição: Ochi Correções: dede e mais 1 »
Exibir acordes »
publicidade
fechar