Falando às Paredes

Chitãozinho & Xororó

 Chitãozinho & Xororó
Tom: G
		

Intro: G  G/B  C
E|-----------------------------------------------------|
B|--2---2----2-----------------------------------------|
G|-----------------------------------------------------|
D|--3---0h3--3-----------------------------------------|
A|--4---4----4-----------------------------------------|
E|-----------------------------------------------------|



E|-----------------------------------------------------|
B|--1-0--2---------------------------------------------|
G|--2-0------------------------------------------------|
D|-------3---------------------------------------------|
A|-------4---------------------------------------------|
E|-----------------------------------------------------|


( G  D/F#  Em  Am  Am7  D7 )
 

E|--2--3--3/5------------------------------------------|
B|--3--5--5/7------------------------------------------|
G|-----------------------------------------------------|
D|-----------------------------------------------------|
A|-----------------------------------------------------|
E|-----------------------------------------------------|



     G           D/F#        Em
Eu agora estou falando às paredes
       Am          Am7            D7  B7
Já não tenho mais você pra conversar
      Em         Em7+         Em7  E6
Na varanda está vazia aquela rede
         Am         Am7          D7
Onde às vezes eu deitava pra te amar
      G          D/F#          Em
Você foi o amanhecer mais colorido
        Am        Am7        D7   B7
Sem sentido se tornou entardecer
     Em       Em7+        Em7  E6
O vazio da saudade foi tirando
      Am         Am7        D7
A vontade que eu tinha de viver
         C
Só Deus sabe tudo o que eu estou sentindo
       Bm
A tristeza dói no peito sem parar
          Am          Am7         D7
Quantas noites mal dormidas já passei
        Am        Am7         D7
Na esperança de ouvir você chegar
       C
Foram tantas cartas que eu perdi a conta
       Bm
E nos muros, quantas frases escrevi
        Am        Am7         D7
Na esperança que você leia só uma
      Am      Am7            D7
E me faça esquecer que te perdi

      G          D/F#          Em
Você foi o amanhecer mais colorido
        Am        Am7        D7   B7
Sem sentido se tornou entardecer
     Em       Em7+        Em7  E6
O vazio da saudade foi tirando
      Am         Am7        D7
A vontade que eu tinha de viver
         C
Só Deus sabe tudo o que eu estou sentindo
       Bm
A tristeza dói no peito sem parar
          Am          Am7         D7
Quantas noites mal dormidas já passei
        Am        Am7         D7
Na esperança de ouvir você chegar
       C
Foram tantas cartas que eu perdi a conta
       Bm
E nos muros, quantas frases escrevi
        Am        Am7         D7
Na esperança que você leia só uma
      Am      Am7            C
E me faça esquecer que te perdi

(Intro - Primeira Parte)

Comentários 1

  • maurols maurols: Postado em 29/09/2012 15:55

    Isso sim é sertanejo, musica bem feita, linda letra...

Composição: Virginia Kheer / Xororó
Esse não é o compositor? Avise-nos.
Contribuição: Fer Barreto Correções: nandinhobaia e mais 2 »
Exibir acordes »
publicidade
fechar