João e o Pé de Feijão

Cicero

 Cicero Compositor: Cícero
Tom: G
		
Riff:

        Bm7         G          Em         F#7        G         Em
E|-----------------------------------------------------------------|
B|--0---0----0--0---0--0---0---0--0--------------0---0--0----0--0--|
G|------------------------------------3---3--3---------------------|
D|-----------------------------------------------------------------|
A|--2---2----2-----------------------------------------------------|
E|--------------3---3--3---0---0--0---2---2--2---3---3--3----0--0--|


       Bm7     G
Ninguém soube
                 Em
que foi morar longe
F#7         G      Em
não, ninguém soube
        Bm7     G
Não foi ponto
              Em
feriado ou desconforto
F#7         G      Em
pra ninguém soube
      Bm7     G
Diz a lenda
                     Em
que ele trocou suas certezas
F#7         G     Em
por alguns sonhos mágicos

Riff:

        Bm7         D          G          F#7        G         Em
E|--------------------------------------------------------------------|
B|--0---0----0--0---0--0---0---0--0--------------0---0--0--0---0--0---|
G|------------------------------------3---3--3------------------------|
D|--------------------------------------------------------------------|  (2x)
A|--2---2----2--5---5--5----------------------------------------------|
E|-------------------------3---3--3---2---2--2---3---3--3--0---0--0---|


        Bm7    G
Ninguém soube
que ele foi morar
Em   F#7     G    Em
onde ninguém cabe
        Bm7   G
Não foi ponto
                  Em
o comércio estava pronto
  F#7
e vendeu bem
   G      Em
No dia de São Ninguém


        Bm7         D          G          F#7        G         Em
E|--------------------------------------------------------------------
B|--0---0----0--0---0--0---0---0--0--------------0---0--0--0---0--0---
G|------------------------------------3---3--3------------------------
D|--------------------------------------------------------------------   (2x)
A|--2---2----2--5---5--5----------------------------------------------
E|-------------------------3---3--3---2---2--2---3---3--3--0---0--0---



E|------------------------------------------------------------------------------------------|
B|-----8-8-8-8-7-7-7-7----------------------------------------------------------------------|
G|--7--------------------9-9-9-9-7-7-7-7--9-9-9-7-7-7-7-----------------------------7-7-7-7-|
D|--------------------9------------------9---------------9-8-8-8-8-9-9-9-9-8-9-9-9-9--------|
A|------------------------------------------------------------------------------------------|
E|------------------------------------------------------------------------------------------|
                                                                                            |
E|------------------------------------------------------------------------------------------|
B|------------------------------------------------------------------------------------------|
G|--9---------7-7-7-7-9---------------------------------------------------------------------|
D|----9-9-9-9-------------------------------------------------------------------------------|
A|------------------------------------------------------------------------------------------|
E|------------------------------------------------------------------------------------------|

           (algumas vezes)


E|-----------------------------------------------------------------------------
B|-----8-8-8-8-7-7-7-7----------------------------------------------------------
G|--7--------------------9-9-9-9-7-7-7-7---9-9-9-9-7-7-7-7----------------------
D|--------------------9------------------9----------------9--8-8-8-9-8-9~~------ (1x)
A|-----------------------------------------------------------------------------
E|-----------------------------------------------------------------------------



Bm7       G      Em       F#     G  Em
Ainda não fazem pessoas de algodão
Bm7       G      Em           F#           G        Em
Ainda não fazem pessoas que enxuguem suas próprias mágoas
17.845 exibições

Comentários 2

Composição: Sabe quem é o compositor? Envie pra gente. Contribuição: Braw' (8) Correções: Higor Gonçalves , jotta_fernandes e mais 2 »
Exibir acordes »
publicidade
fechar