João e o Pé de Feijão

Cicero

 Cicero Compositor: Cícero
Tom: G
		
Riff:

     Bm7         G          Em         F#7        G
E|-----------------------------------------------------------------|
B|--0---0----0--0---0--0---0---0--0---0---0--0---0---0--0----------|
G|-----------------------------------------------------------------|
D|-----------------------------------------------------------------|
A|--2---2----2-----------------------------------------------------|
E|--------------3---3--3---0---0--0---2---2--2---3---3--3----------|


       Bm7     G
Ninguém soube
                 Em
que ele foi morar longe
F#7         G      Em
não, ninguém soube
        Bm7     G
Não foi ponto
              Em
feriado ou desconforto
F#7         G      Em
pra ninguém soube
      Bm7     G
Diz a lenda
                     Em
que ele trocou suas certezas
F#7         G     Em
por alguns sonhos mágicos

Riff:

     Bm7         D          G          F#7        G         Em
E|--------------------------------------------------------------------|
B|--0---0----0--0---0--0---0---0--0---0---0--0---0---0--0--0---0--0---|
G|--------------------------------------------------------------------|
D|--------------------------------------------------------------------|
A|--2---2----2--5---5--5----------------------------------------------|
E|-------------------------3---3--3---2---2--2---3---3--3--0---0--0---|


        Bm7    G
Ninguém soube
que ele foi morar
Em   F#7     G    Em
onde ninguém cabe
        Bm7   G
Não foi ponto
                  Em
o comércio estava pronto
  F#7
e vendeu bem
   G      Em
No dia de São Ninguém


     Bm7         D          G          F#7        G         Em
E|--------------------------------------------------------------------
B|--0---0----0--0---0--0---0---0--0---0---0--0---0---0--0--0---0--0---
G|--------------------------------------------------------------------
D|--------------------------------------------------------------------
A|--2---2----2--5---5--5----------------------------------------------
E|-------------------------3---3--3---2---2--2---3---3--3--0---0--0---



E|-------------------------------------------------------------------
B|-----8-8-8-8-7-7-7-7-----------------------------------------------
G|--7--------------------9-9-9-9-7-7-7-7--7-7-7-7-9-9-9-9------------
D|--------------------9------------------9---------------9--8-8-89~~-
A|-------------------------------------------------------------------
E|-------------------------------------------------------------------


Bm7       G      Em       F#     G  Em
Ainda não fazem pessoas de algodão
Bm7       G      Em           F#           G        Em
Ainda não fazem pessoas que enxuguem suas próprias mágoas
Texto Colunas
Alterar tom ½ tom ½ tom
afinação acordes na letra esconder tabs mais »
13.056 exibições

Comentários (1)

Composição: Sabe quem é o compositor? Envie pra gente. Contribuição: Braw' (8) Correções: jotta_fernandes »
  1. Tudo Que Você Quiser - Luan Santana Manteve-se 5.838 exibições
  2. Lepo Lepo - Psirico Manteve-se 4.258 exibições
  3. Mozão - Lucas Lucco Manteve-se 4.092 exibições
  4. Logo Eu - Jorge e Mateus Manteve-se 3.677 exibições
  5. Gaveta - Fernando e Sorocaba Manteve-se 3.251 exibições
  6. Só Os Loucos Sabem - Charlie Brown Jr. Manteve-se 2.945 exibições
  7. Pra Você - Onze:20 Manteve-se 2.783 exibições
  8. Tempo Perdido - Legião Urbana Manteve-se 2.356 exibições
  9. Fui Fiel - Gusttavo Lima Manteve-se 2.236 exibições
  10. Na Linha do Tempo - Victor e Leo Manteve-se 2.111 exibições
  1. Jorge e Mateus- Manteve-se 22.167 exibições
  2. Legião Urbana- Manteve-se 19.327 exibições
  3. Luan Santana- Manteve-se 17.248 exibições
  4. Charlie Brown Jr.- Manteve-se 16.750 exibições
  5. Fernandinho- Manteve-se 14.218 exibições
  6. Thalles Roberto- Manteve-se 10.904 exibições
  7. Católicas- Manteve-se 10.314 exibições
  8. Aline Barros- Manteve-se 10.062 exibições
  9. Victor e Leo- Manteve-se 10.039 exibições
  10. Gusttavo Lima- Manteve-se 9.893 exibições
Exibir acordes »

Cifras e tabs

Fórum Cifra Club

Aprenda

Cifra Club News

Mais Serviços Cifra Club ID

Studio Sol

©1996 - 2014 Cifra Club · o primeiro, maior e mais acessado do Brasil · 329 mil músicas · 5.9 milhões pessoas cadastradas

publicidade
fechar