Tom: A
		
(intro)  A9   D9   A9  D9

A9
 Eis me aqui na presença
D9
 A pensar no que tens feito em mim
A9
 Te busquei, te encontrei
D9
 Só pra ouvir tua doce voz
   F#m7     E      D9
Jesus, Santo, Justo


E|-----------------------------------------------------------------------|
B|--10-7-10-7-10-7-10-7-9-5-9-5-9-5-9-5-7-3-7-3-7-3-7-3-9-5-9-5-9-5-9-5--|
G|-----------------------------------------------------------------------|
D|-----------------------------------------------------------------------|
A|-----------------------------------------------------------------------|
E|-----------------------------------------------------------------------|


       E    E4
Sempre és fiel
F#m     E        D9
  Salva, cura, redime o meu ser

(refrão)
           A9
Eu te adorarei por quem tu és
           F#m
Eu te adorarei por quem tu és
            E              E4
Eu te adorarei por quem tu és
   D
Jesus

(repete tudo)

(refrão)

(solo)

E|--10-10-10-9-9-9-7-7-7-5-5-5---10-10-10-9-9-9-7-7-7-5-5-5-5-5-5-4-4-----|
B|------------------------------------------------------------------------|
G|--7--7--7--6-6-6-4-4-4-2-2-2---7--7--7--6-6-6-4-4-4-2-2-2-2-2-2-1-1-----|
D|------------------------------------------------------------------------|
A|------------------------------------------------------------------------|
E|------------------------------------------------------------------------|



E|-----------9-----12---11----------------|
B|----10--12--10-----10----9--10----------|
G|--9----------------------------9--------|
D|---------------------------------12-11--|
A|----------------------------------------|
E|----------------------------------------|


   A9            F#m
Seguro estou, confio em ti
    E            D9
Sem fim é o teu amor  (3x)

(refrão 2x)
33.830 exibições

Comentários 0

Composição: Marty Sampson (Hillsong Music Australia)
Esse não é o compositor? Avise-nos.
Contribuição: Alessandro Correções: Alex / Jussaral e mais 2 »
Consegui tocarAinda não conseguiram tocar essa música. Seja o primeiro!
    Não consegui tocar
    Exibir acordes »
    publicidade
    fechar