Cifra Club

Por Quem Tú És

Comunidade Evangélica de Maringá

Cifra: Principal (violão e guitarra)
exibições 52.032
Tom: A
[Intro] A9  D9  A9  D9

A9
 Eis me aqui na presença
D9
 A pensar no que tens feito em mim
A9
 Te busquei, te encontrei
D9
 Só pra ouvir tua doce voz
   F#m7     E      D9
Jesus, Santo, Justo

E|-----------------------------------------------------------------------|
B|---10--10--10------9-9-9-----7-7-7-------------------------------------|
G|-11--11--11--11---9-9-9-9---7-7-7-7------------------------------------|
D|-----------------------------------------------------------------------|
A|-----------------------------------------------------------------------|
E|-----------------------------------------------------------------------|

       E    E4
Sempre és fiel
F#m     E        D9
  Salva, cura, redime o meu ser

[Refrão]

           A9
Eu te adorarei por quem tu és
           F#m
Eu te adorarei por quem tu és
            E              E4
Eu te adorarei por quem tu és
   D
Jesus

A9
 Eis me aqui na presença
D9
 A pensar no que tens feito em mim
A9
 Te busquei, te encontrei
D9
 Só pra ouvir tua doce voz
   F#m7     E      D9
Jesus, Santo, Justo

E|-----------------------------------------------------------------------|
B|---10--10--10------9-9-9-----7-7-7-------------------------------------|
G|-11--11--11--11---9-9-9-9---7-7-7-7------------------------------------|
D|-----------------------------------------------------------------------|
A|-----------------------------------------------------------------------|
E|-----------------------------------------------------------------------|

       E    E4
Sempre és fiel
F#m     E        D9
  Salva, cura, redime o meu ser

[Refrão]

           A9
Eu te adorarei por quem tu és
           F#m
Eu te adorarei por quem tu és
            E              E4
Eu te adorarei por quem tu és
   D
Jesus

[Solo]

E|--10-10-10-9-9-9-7-7-7-5-5-5---10-10-10-9-9-9-7-7-7-5-5-5-5-5-5-4-4-----|
B|------------------------------------------------------------------------|
G|--7--7--7--6-6-6-4-4-4-2-2-2---7--7--7--6-6-6-4-4-4-2-2-2-2-2-2-1-1-----|
D|------------------------------------------------------------------------|
A|------------------------------------------------------------------------|
E|------------------------------------------------------------------------|

E|-----------9-----12---11----------------|
B|----10--12--10-----10----9--10----------|
G|--9----------------------------9--------|
D|---------------------------------12-11--|
A|----------------------------------------|
E|----------------------------------------|

   A9            F#m
Seguro estou, confio em ti
    E            D9
Sem fim é o teu amor
   A9            F#m
Seguro estou, confio em ti
    E            D9
Sem fim é o teu amor
   A9            F#m
Seguro estou, confio em ti
    E            D9
Sem fim é o teu amor

[Refrão]

           A9
Eu te adorarei por quem tu és
           F#m
Eu te adorarei por quem tu és
            E              E4
Eu te adorarei por quem tu és
   D
Jesus[Refrão]
           A9
Eu te adorarei por quem tu és
           F#m
Eu te adorarei por quem tu és
            E              E4
Eu te adorarei por quem tu és
   D
Jesus
Acordes para:
    Colaboração e revisão:

    0 comentários

      mostrar mais comentários

      Conseguiu tocar?

      1tocaram0ainda não

      Grave um vídeo tocando Por Quem Tú És e mande pra gente!

      00:00 / 00:00
      outros vídeos desta música
      repetirqualidadeAutomático
      Outro vídeos desta música
        00:00 / 00:00
        OK