CPM 22

Não Sei Viver Sem Ter Você

1.221.589 exibições
Tom: G
(intro)

(riff 1)

       E5                             G5
E |------------------------------------------------------------------------|
B |------------------------------------------------------------------------|
G |-x-x-9-9-x-x-9-9-x-x-9-9-x-x-9-9-x-x-12-12-x-x-12-12-x-x-12-12-x-x-12-12|
D |-x-x-9-9-x-x-9-9-x-x-9-9-x-x-9-9-x-x-12-12-x-x-12-12-x-x-12-12-x-x-12-12|
A |-x-x-7-7-x-x-7-7-x-x-7-7-x-x-7-7-x-x-10-10-x-x-10-10-x-x-10-10-x-x-10-10|
E |------------------------------------------------------------------------|


        D5                             C5
E |----------------------------------------------------------------|
B |----------------------------------------------------------------|
G |-x-x-7-7-x-x-7-7-x-x-7-7-x-x-7-7-x-x-5-5-x-x-5-5-x-x-5-5-x-x-5-5|
D |-x-x-7-7-x-x-7-7-x-x-7-7-x-x-7-7-x-x-5-5-x-x-5-5-x-x-5-5-x-x-5-5|
A |-x-x-5-5-x-x-5-5-x-x-5-5-x-x-5-5-x-x-3-3-x-x-3-3-x-x-3-3-x-x-3-3|
E |----------------------------------------------------------------|


        A5                             C5              D5
E |--------------------------------------------------------|
B |--------------------------------------------------------|
G |-x-x-x-x-x-x-x-x-x-x-x-x-x-x-x-x-x-x-5-5-x-x-5-5-x-x-7-7|
D |-x-x-7-7-x-x-7-7-x-x-7-7-x-x-7-7-x-x-5-5-x-x-5-5-x-x-7-7|
A |-x-x-7-7-x-x-7-7-x-x-7-7-x-x-7-7-x-x-3-3-x-x-3-3-x-x-5-5|
E |-x-x-5-5-x-x-5-5-x-x-5-5-x-x-5-5-x-x--------------------|


(riff 2) (dedilhado com efeito phaser 

E |-0-------0--------0-----0-----|
B |-0-------0--------3-----0-----|
G |-0----0--0----0---2--2--0----0|
D |-2--2----0--0-----0-----2--2--|  (2x)
A |-2-------2--------------2-----|
E |-0-------3--------------0-----|


(riff 3)

E |-----------|
B |-----------|
G |9-10-9-10-9|
D |-----------|  
A |7--8-7--8-7|
E |-----------|


(toca-se este solo antes de entrar no verso "Acreditar que pode ser...")

E5                    G5
   Não há mais descul   -pas
                             D5
Você vai ter que me entender
                      C5
Quando olhar pra trás
                        A5
Procurando e não me ver
         C5                E5
Chegou a hora de recomeçar

E5          G5                 D5
   Ter cada coisa em seu lugar
         C5                      E5
Tentar viver sem recordar jamais
          G5                    D5
E se a saudade me deixar falhar
         C5                     A5
Deixar o tempo tentar te apagar

B5                   C5                     G5
   Te ligar de madrugada sem saber o que dizer
                    D5                    B5
Esperando ouvir sua voz e você nem me atender
       C5               D5
Nem ao me   -nos pra dizer

    G5
Que não vai voltar
           D5
Não vai tentar me entender
               C5            E5
Que eu não fui nada pra você
           C5        D5
Que eu deveria te deixar em paz
   G5
Eu já não sei mais
          D5
Não sei viver sem ter você
           C5              E5
Hoje eu queria te esquecer
           C5            D5             G5
Mas quanto mais eu tento mais eu lembro
          D5               (C5 E5 C5 D5)   G5
Não sei viver sem ter você
          D5               (C5 E5 C5 D5)   E5
Não sei viver sem ter você

(só o baixo)
                     G5   D5
É difícil de aceitar
                C5
Recomeçar do ze   -ro
                    E5
Levantar e caminhar

E5                       G5
Perceber que quem se a   -ma
                           D5
Já não se importa com você
            C5                            A5
E acordar sozinho ouvindo o som da sua tv
         C5
Chegou a hora de recomeçar      


G|-9-10-9-10-9|
D|------------|
A|-7--8-7--8-7|


E5           G5                          D5                         C5
   Acreditar    (acreditar) que pode ser    (pode ser) melhor assim    (melhor assim)
               E5                  G5
Tentar crescer    (tentar crescer)    fingir feliz
                  D5                           C5
Te deixar para depois a cada dia que eu morrer
                      A5
Espero que você morra após

B5                     C5                     G5
  Seu eu ligar de madrugada sem saber o que dizer
                    D5                    B5
Esperando ouvir sua voz e você nem me atender
       C5               D5
Nem ao me   -nos pra dizer

(pausa) (o tel toca 2x)

    G5
Que não vai voltar
           D5
Não vai tentar me entender
           C5            E5
Eu não fui nada pra você
           C5        D5
Que eu deveria te deixar em paz
   G5
Eu já não sei mais
          D5
Não sei viver sem ter você
           C5              E5
Hoje eu queria te esquecer
           C5            D5             G5
Mas quanto mais eu tento mais eu lembro
          D5               (C5 E5 C5 D5)   G5
Não sei viver sem ter você
          D5               (C5 E5 C5 D5)   G5
Não sei viver sem ter você

               D5      C5  D5       C5
Preciso reaprender a viver pra esquecer
    D5     (G5 E5 C5 D5 C5)
Pra te esquecer
D5              G5
Pra te esquecer
    Composição: Rodrigo KoalaColaboração e revisão:
    • Kbeça
    • lincoln AAAAAAAAAAAAA
    • debonis
    • .:FelDo:.
    • +2

    Comentários 18

    140 .
    • arthuuroliveira arthuuroliveira: Em 23/06/2014 16:01

      Toque sem os power acordes, fica mais simple e bonito . G D Em C - B A

    • willian willian: Em 11/04/2014 17:45

      como que é a batida dessa música?

      • Caio Caio: Em 11/08/2014 09:53

        Cima, Baixo, direto, so tem algumas variações, mais a maioria da batida e Cima, Baixo..

    • arlanuchiha arlanuchiha: Em 18/01/2014 09:26

      No inicio eu usei palhetada pra baixo pra ficar igual a musica, mais ainda brinquei fazendo tipo um reggae kkkkk

    • brenolpzista brenolpzista: Em 17/04/2013 15:36

      Comentário removido

      • Dudão Dudão: Em 24/10/2013 17:23

        Vergonha, por quê?! Você pagou e eles não fizeram a vídeo-aula. Poxa, que sacanas!

      • Dudão Dudão: Em 24/10/2013 17:26

        Vergonha, por quê?! Você pagou e eles não fizeram a vídeo-aula? Poxa, que sacanas...

    • mylous mylous: Em 02/01/2013 13:20

      Seria melhor o vídeo néé.. o video e acordes mais leves.. para iniciantes :\

      • Higor Higor : Em 06/12/2013 21:10

        o som não fica parecido se tirar a 5° dos acordes, então para iniciantes essa música não seria recomendável

      • Higor Higor : Em 06/12/2013 21:12

        Na hora do 'não vai voltar' dá pra tocar sem as 5° ai após a virada que tem na m´sica volta ao normal ( no G5 antes do "Não sei viver sem te

    Exibindo 10 de 18 comentários Mostrar mais ver todos »
    140 cancelar

    conseguiu tocar?

    • Flavio
    • Júlia
    • Luan3513
    • bayard.junior.7
    • kaykyr
    • Nícolas
    • shotbugs
    • •••
    0:00 / 0:00

    Capítulos

      3 versões de baixo exibições contribuição e correção
      2 versões de Guitar Proformatodownloadscontribuição
      1 versão de partiturasformatodownloadscontribuição
      play/pausefechar subir/descer velocidade
      6ª corda E5ª corda A4ª corda D3ª corda G2ª corda B1ª corda E
        acordes
        publicidad
        fechar
        ok