CPM 22

Um Minuto Para o Fim do Mundo

2.010.541 exibições
Tom: C
(intro da guitarra base) A5 C5 G5 F5

(guitarra solo)

(acompanhamento)

E|-------0-------------0-------|
B|---1-----1------1------1-----|
G|-2---2--------2---2------2---|


A5         C5
Me sinto só,
G5              F5
Mas quem é que nunca se sentiu assim
A5               C5
Procurando um caminho pra seguir,
     G5      F5
Uma direção, respostas

(acompanhamento)

E|-------0------3-----0-----3-----0-----3-----0-----|
B|---1-----1------1-----1-----1-----1-----1-----1---|
G|-2---2-----2------2-----2-----2-----2-----2-----2-|
D|--------------------------------------------------|
A|--------------------------------------------------|
E|--------------------------------------------------|


E|-3-----0-----3-----0-----3-----0-----3-----0-------5-|
B|---1-----1-----1-----1-----1-----1-----1-----1---1---|
G|-----2-----2-----2-----2-----2-----2-----2-----2-----|
D|-----------------------------------------------------|
A|-----------------------------------------------------|
E|-----------------------------------------------------|


A5    C5                    G5
Um minuto para o fim do mundo.
          F5               A5
Toda sua vida em 60 segundos
                 C5                G5   F5
Uma volta no ponteiro do relógio pra viver

(acompanhamento)

A5   F5                     C5                G5               A5
      o tempo corre contra mim, sempre foi assim e sempre vai ser
F5                       C5           G5          A5
  vivendo apenas pra vencer a falta que me faz você
F5             C5                  G5           A5
   de olhos fechados eu tento esconder a dor agora
F5             C5           G5                C5
  por favor entenda, eu preciso ir embora porque

(refrão)
                   G5
Quando estou com você
           F5       C5
Sinto meu mundo acabar,
                          G5
Perco o chão sob os meus pés
            F5          C5
Me falta o ar pra respirar
            G5                         F5
E só de pensar em te perder por um segundo,
           G5                  C5
Eu sei que isso é o fim do mundo

( C5 G5 A5 F5 ) (2x)
(repete riff - 1x)

(riff)
(1ª parte)

E|------------------------------------------------------------------------------------------------------------------------------|
B|------------------------------------------------------------------------------------------------------------------------------|
G|5-5-5-5-5-5-5-5-5-5-5-5--9-9-9-9-9--7-7-7-7-7-7-7--14-14-14-14-14--12-12-12-12-12-12-12--17-17-17-17-17--16-16-16-16-16-16-16-|
d |x-x-x-x-x-x-x-x-x-x-x-x--x-x-x-x-x--x-x-x-x-x-x-x--x--x--x--x--x---x--x---x-x--x--x--x---x--x--x--x---x--x--x--x--x--x--x--|
A|3-3-3-3-3-3-3-3-3-3-3-3--7-7-7-7-7--5-5-5-5-5-5-5--12-12-12-12-12--10-10-10-10-10-10-10--15-15-15-15-15--14-14-14-14-14-14-14-|
E|------------------------------------------------------------------------------------------------------------------------------|


(riff - 2ª parte)

E|-------------------------------------------------------------------------------------------|
B|-------------------------------------------------------------------------------------------|
G|5-5-5-5-5-5-5-5-5-5-5-5--9-9-9-9-9--7-7-7-7-7-7-7--14-14-14-14-14--12-12-12-12-12-12-12--5-|
d |x-x-x-x-x-x-x-x-x-x-x-x--x-x-x-x-x--x-x-x-x-x-x-x--x--x--x--x--x---x--x---x-x--x--x--x---x-|
A|3-3-3-3-3-3-3-3-3-3-3-3--7-7-7-7-7--5-5-5-5-5-5-5--12-12-12-12-12--10-10-10-10-10-10-10--3-|
E|-------------------------------------------------------------------------------------------|


(acompanhamento)

A5  F5                       C5          G5        A5
      volto o relógio para trás tentando adiar o fim,
F5                     C5            G5                    A5
  tentando esconder o medo de te perder quando me sinto assim
F5             C5                 G5          A5
   de olhos fechados eu tento enganar meu coração
F5              C5              G5        C5
  fugir pra outro lugar em uma outra direção porque

(refrão 2x)
                   G5
Quando estou com você
           F5       C5
Sinto meu mundo acabar,
                          G5
Perco o chão sob os meus pés
            F5          C5
Me falta o ar pra respirar
            G5                         F5
E só de pensar em te perder por um segundo,
           G5                  C5
Eu sei que isso é o fim do mundo

(riff final) ( C5 G5 A5 F5 )
Eu sei que isso é o fim do mundo.

(final) ( F5 )                     C5
Eu sei que isso é o fim (2x) do mundo

(riff final)

E|--------------------------------------------------------------------------------------------------------------------------------|
B|--------------------------------------------------------------------------------------------------------------------------------|
G|--5-5-5-5-5-5-5-5-5-5-5-5--9-9-9-9-9--7-7-7-7-7-7-7--14-14-14-14-14--12-12-12-12-12-12-12--17-17-17-17-17--16-16-16-16-16-16-16-|
D|--x-x-x-x-x-x-x-x-x-x-x-x--x-x-x-x-x--x-x-x-x-x-x-x--x--x--x--x--x---x--x---x-x--x--x--x---x--x--x--x--x---x--x--x--x--x--x--x--|
A|--3-3-3-3-3-3-3-3-3-3-3-3--7-7-7-7-7--5-5-5-5-5-5-5--12-12-12-12-12--10-10-10-10-10-10-10--15-15-15-15-15--14-14-14-14-14-14-14-|
E|--------------------------------------------------------------------------------------------------------------------------------|


E|------------------------------------------------------------------------------------------------------------------|
B|------------------------------------------------------------------------------------------------------------------|
G|-17-17-17-17-17-17-17-17-17-17-17-17--16-16-16-16-16--14-14-14-14-14-14-14--12-12-12-12-12--10-10-10-10-10-10-10--|
D|-x--x--x--x--x--x--x--x--x--x--x--x---x--x--x--x--x---x--x--x--x--x--x--x---x---x--x-x--x---x--x--x--x--x--x--x---|
A|-15-15-15-15-15-15-15-15-15-15-15-15--14-14-14-14-14--12-12-12-12-12-12-12--10-10-10-10-10--8--8--8--8--8--8--8---|
E|------------------------------------------------------------------------------------------------------------------|


Eu sei que isso é o fim
Eu sei que isso é o fim
Eu sei que isso é o fim do mundo.

E|------------------------------------|
B|------------------------------------|
G|-12-12-12-12--12-12-12--9-9-9-9--5--|
D|--x--x--x--x---x--x--x--x-x-x-x--x--|
A|-10-10-10-10--10-10-10--7-7-7-7--3--|
E|------------------------------------|
    Composição: Rodrigo Koala / WallyColaboração e revisão:
    • Fernando S8
    • victorcardoso
    • Guitar
    • Jonatas Alves
    • +5

    Comentários 36

    140 .
    • Neto Neto: Em 02/03/2015 13:23

      muito fácil !!!

    • Lauro Lauro: Em 01/05/2014 15:17

      essa música fica muito melhor em A# que é o tom que eles a tocam com o Dinho Ouro Preto !

    • Tarcisio Tarcisio: Em 16/04/2014 08:57

      , Facinho , Ele Encinar tocar , não cantar ,Se achou ruim faça melhor e manda :p

    • isamu.ige isamu.ige: Em 06/10/2013 08:59

      Mano , Alguém paga uma aula de canto pra esse cara !

    • LBotelho LBotelho: Em 30/08/2013 13:07

      ridicula de facil rs

    • gandolf gandolf: Em 24/02/2013 14:03

      e.e ele n toco a unica parte que eu queria ver....

    • radameeses radameeses: Em 30/01/2013 17:42

      a cifra

    • nandosouza20 nandosouza20: Em 07/01/2013 07:03

      eitaa musica chata da po#@#. só to pegando essa cifra pq meu irmao tá enchendo o saco a batera é boa punk. mas de resto aff...

    Exibindo 10 de 36 comentários Mostrar mais ver todos »
    140 cancelar
    0:00 / 0:00

    Capítulos

      1 versão de bateria exibições contribuição e correção
      play/pausefechar subir/descer velocidade
      6ª corda E5ª corda A4ª corda D3ª corda G2ª corda B1ª corda E
        acordes
        publicidad
        fechar
        ok