Cifra Club

Um Minuto Para o Fim do Mundo

CPM 22

Cifra: Principal
exibições 2.272.111
Tom: C
[Introdução] A5  C5  G5  F5

E|-------0-------------0-------------------------------|
B|---1------1------1------1----------------------------|
G|-2---2---------2---2-------2-------------------------|  (3x)
D|-----------------------------------------------------|
A|-----------------------------------------------------|
E|-----------------------------------------------------|


[Primeira Parte]

A5             C5  G5
   Me sinto só
                F5
Mas quem é que nunca 
                A5
Se sentiu assim
                 C5
Procurando um caminho 
                G5     F5
Pra seguir uma direção
          A5
Respostas

E|-------0------3------0------3------0------3------0---|
B|---1------1------1------1------1------1------1------1|
G|-2---2------2------2------2------2------2------2-----|
D|-----------------------------------------------------|
A|-----------------------------------------------------|
E|-----------------------------------------------------|

E|-3-----0------3------0------3------0------3------0---|
B|---1------1------1------1------1------1------1-------|
G|-----2------2------2------2------2------2------2-----|
D|-----------------------------------------------------|
A|-----------------------------------------------------|
E|-----------------------------------------------------|

E|-----------------------------------------------------|
B|-1---1-----------------------------------------------|
G|---2---2---------------------------------------------|
D|-----------------------------------------------------|
A|-----------------------------------------------------|
E|-----------------------------------------------------|

      C5                 G5
Um minuto para o fim do mundo
          F5           A5
Toda sua vida em 60 segundos 
                 C5
Uma volta no ponteiro do relógio 
     G5   F5
Pra viver


[Segunda Parte]

A5  F5                       C5
       O tempo corre contra mim
              G5
Sempre foi assim 
              A5  F5
E sempre vai ser

E|-----0--------3--------1-----------------------------|
B|---1--------1--------1-------------------------------|
G|-2--------0--------0---------------------------------|   (2x)
D|-----------------------------------------------------|
A|-----------------------------------------------------|
E|-----------------------------------------------------|

E|-----0--------3----1-1-1...--------------------------|
B|---1--------1------1-1-1...--------------------------|
G|-2--------0------------------------------------------|
D|-----------------------------------------------------|
A|-----------------------------------------------------|
E|-----------------------------------------------------|

                       C5
Vivendo apenas pra vencer 
          G5            A5  F5
A falta que me faz você
             C5
De olhos fechados 
               G5         A5  F5
Eu tento esconder a dor agora
             C5
Por favor entenda 
       G5                 C5
Eu preciso ir embora porque


[Refrão]

                    G5
Quando estou com você
           F5       C5
Sinto meu mundo acabar
                          G5
Perco o chão sob os meus pés
                        C5
Me falta o ar pra respirar
            G5
E só de pensar 
                       F5
Em te perder por um segundo
           G5
Eu sei que isso é o fim do mundo


[Primeiro Solo] C5  G5  A5  F5
                C5  G5  A5  F5

E|-----------------------------------------------------|
B|-----------------------------------------------------|
G|-5--5--5-5-5-5--5-5--5-5-5-5-9--9--9-9-9-7--7-7------|
D|-----------------------------------------------------|
A|-3--3--3-3-3-3--3-3--3-3-3-3-7--7--7-7-7-5--5-5------|
E|-----------------------------------------------------|
   ↓  ↓  ↓ ↑ ↓ ↑  ↑ ↓  ↓ ↑ ↓ ↑ ↓  ↓  ↓ ↑ ↓ ↑  ↑ ↓

E|-----------------------------------------------------|
B|-----------------------------------------------------|
G|-7-7-7-7-14--14--14-14-14-12--12-12--12-12-12-12-----|
D|-----------------------------------------------------|
A|-5-5-5-5-12--12--12-12-12-10--10-10--10-10-10-10-----|
E|-----------------------------------------------------|
   ↓ ↑ ↓ ↑  ↓   ↓   ↓  ↑  ↓  ↑   ↑  ↓   ↓  ↑  ↓  ↑

E|-----------------------------------------------------|
B|-----------------------------------------------------|
G|-17--17--17-17-17-16--16-16--16-16-16-16-------------|
D|-----------------------------------------------------|
A|-15--15--15-15-15-14--14-14--14-14-14-14-------------|
E|-----------------------------------------------------|
    ↓   ↓   ↓  ↑  ↓  ↑   ↑  ↓   ↓  ↑  ↓  ↑

E|-----------------------------------------------------|
B|-----------------------------------------------------|
G|-5--5--5-5-5-5--5-5--5-5-5-5-9--9--9-9-9-7--7-7------|
D|-----------------------------------------------------|
A|-3--3--3-3-3-3--3-3--3-3-3-3-7--7--7-7-7-5--5-5------|
E|-----------------------------------------------------|
   ↓  ↓  ↓ ↑ ↓ ↑  ↑ ↓  ↓ ↑ ↓ ↑ ↓  ↓  ↓ ↑ ↓ ↑  ↑ ↓

E|-----------------------------------------------------|
B|-----------------------------------------------------|
G|-7-7-7-7-14--14--14-14-14-12--12-12--12-12-12-12-----|
D|-----------------------------------------------------|
A|-5-5-5-5-12--12--12-12-12-10--10-10--10-10-10-10-----|
E|-----------------------------------------------------|
   ↓ ↑ ↓ ↑  ↓   ↓   ↓  ↑  ↓  ↑   ↑  ↓   ↓  ↑  ↓  ↑

E|-----------------------------------------------------|
B|-----------------------------------------------------|
G|-5---------------------------------------------------|
D|-----------------------------------------------------|
A|-3---------------------------------------------------|
E|-----------------------------------------------------|
   ↓

[Terceira Parte]

A5  F5                        C5
       Volto o relógio para trás
         G5          A5  F5
Tentando adiar o fim
                     C5            G5
Tentando esconder o medo de te perder
                      A5  F5
Quando me sinto assim
             C5
De olhos fechados 
              G5          A5  F5
Eu tento enganar meu coração
              C5
Fugir pra outro lugar 
       G5                 C5
Em uma outra direção porque


[Refrão]

                    G5
Quando estou com você
           F5       C5
Sinto meu mundo acabar
                          G5
Perco o chão sob os meus pés
                        C5
Me falta o ar pra respirar
            G5
E só de pensar 
                       F5
Em te perder por um segundo
           G5
Eu sei que isso é o fim do mundo

                    G5
Quando estou com você
           F5       C5
Sinto meu mundo acabar
                          G5
Perco o chão sob os meus pés
                        C5
Me falta o ar pra respirar
            G5
E só de pensar 
                       F5
Em te perder por um segundo
           G5
Eu sei que isso é o fim do mundo


[Segundo Solo] C5  G5  A5

E|-----------------------------------------------------|
B|-----------------------------------------------------|
G|-5--5--5-5-5-5--5-5--5-5-5-5-9--9--9-9-9-7--7-7------|
D|-----------------------------------------------------|
A|-3--3--3-3-3-3--3-3--3-3-3-3-7--7--7-7-7-5--5-5------|
E|-----------------------------------------------------|
   ↓  ↓  ↓ ↑ ↓ ↑  ↑ ↓  ↓ ↑ ↓ ↑ ↓  ↓  ↓ ↑ ↓ ↑  ↑ ↓

E|-----------------------------------------------------|
B|-----------------------------------------------------|
G|-7-7-7-7-14--14--14-14-14-12--12-12--12-12-12-12-----|
D|-----------------------------------------------------|
A|-5-5-5-5-12--12--12-12-12-10--10-10--10-10-10-10-----|
E|-----------------------------------------------------|
   ↓ ↑ ↓ ↑  ↓   ↓   ↓  ↑  ↓  ↑   ↑  ↓   ↓  ↑  ↓  ↑

E|-----------------------------------------------------|
B|-----------------------------------------------------|
G|-17--17--17-17-17-16--16-16--16-16-16-16-------------|
D|-----------------------------------------------------|
A|-15--15--15-15-15-14--14-14--14-14-14-14-------------|
E|-----------------------------------------------------|
    ↓   ↓   ↓  ↑  ↓  ↑   ↑  ↓   ↓  ↑  ↓  ↑

E|-----------------------------------------------------|
B|-----------------------------------------------------|
G|-17--17--17-17-17-17--17-17--17-17-17-17-------------|
D|-----------------------------------------------------|
A|-15--15--15-15-15-15--15-15--15-15-15-15-------------|
E|-----------------------------------------------------|
    ↓   ↓   ↓  ↑  ↓  ↑   ↑  ↓   ↓  ↑  ↓  ↑

E|-----------------------------------------------------|
B|-----------------------------------------------------|
G|-16--16--16-16-16-14--14-14--14-14-14-14-------------|
D|-----------------------------------------------------|
A|-14--14--14-14-14-12--12-12--12-12-12-12-------------|
E|-----------------------------------------------------|
    ↓   ↓   ↓  ↑  ↓  ↑   ↑  ↓   ↓  ↑  ↓  ↑

E|-----------------------------------------------------|
B|-----------------------------------------------------|
G|-12--12--12-12-12-10--10-10--10-10-10-10-------------|
D|-----------------------------------------------------|
A|-10--10--10-10-10--8---8--8---8--8--8--8-------------|
E|-----------------------------------------------------|
    ↓   ↓   ↓  ↑  ↓  ↑   ↑  ↓   ↓  ↑  ↓  ↑

E|-----------------------------------------------------|
B|-----------------------------------------------------|
G|-5---------------------------------------------------|
D|-----------------------------------------------------|
A|-3---------------------------------------------------|
E|-----------------------------------------------------|
F5
Eu sei que isso 
               C5  G5  A5
É o fim do mundo
           F5
Eu sei que isso é o fim

Eu sei que isso é o fim
                               C5
Eu sei que isso é o fim do mundo

0 comentários

    mostrar mais comentários

    Conseguiu tocar?

    187tocaram1ainda não

    Grave um vídeo tocando Um Minuto Para o Fim do Mundo e mande pra gente!

    00:00 / 00:00
    outros vídeos desta música
    repetirqualidadeautomática
    Outro vídeos desta música
      00:00 / 00:00
      automática
      Capítulos
      • Tocando a música
      • Apresentação / Equipamentos
      • Acordes da Introdução
      • Tocando Introdução
      • Introdução (Base)
      • Riff Introdução
      • Dicas Primeira Parte
      • Tocando Primeira Parte
      • Riff Primeira Parte
      • Dicas Segunda Parte
      • Tocando Segunda Parte
      • Segunda Parte (Base)
      • Riff Segunda Parte
      • Acordes Refrão
      • Tocando Refrão
      • Refrão (Base)
      • Dicas Solo
      • Tocando Solo 1
      • Solo 1
      • Dicas Finais
      • Tocando Solo 2
      • Solo 2
      • Encerramento
      OK