Cifra Club

Primeiros Erros

Capital Inicial

Cifra: Principal
exibições 4.541.000
Tom: D
Intro: D5(9)  E/D
       D9  A/C#  G/B (2x)

Parte 1:

   D5(9)           D     E/D
E|-5-5--2h5---5-5-5-2-2-2/4-------4--------
B|-3-3-----5-------3-3-3/5-5---7---5-------
G|-2-2--------------2-2-2/4---4-------4----
D|-0---------0---------0-------------------
A|-----------------------------------------
E|-----------------------------------------

E|---4-----4-------------------------------
B|-7---5---5-------------------------------
G|-------4-4-------------------------------
D|---------0-------------------------------
A|-----------------------------------------
E|-----------------------------------------

E|---4-------4-------4---------------------
B|-7---5---7---5---7---5-------------------
G|-------4-------4-------4-----------------
D|-----------------------------------------
A|-----------------------------------------
E|-----------------------------------------

Parte 2:

   D9              A/C#
E|-0---------------------------------------
B|-10------12---------10------10-----------
G|-11--11--11--11--9--9----9--9---9--------
D|-0---0---0---0---0-------0------0--------
A|-----------------------------------------
E|-----------------9-----9------9----------

   G/B
E|-------------------------7---------------
B|---8------8--------8-----8---------------
G|-7-7---7--7---7--7-7---7---7-------------
D|-0-----0------0--0-----0---0-------------
A|-----------------------------------------
E|-7---7------7----7---7-------------------

   G/B
E|-----------------------------------------
B|---8------8--------8-----8---------------
G|-7-7---7--7---7--7-7---7-7-7-------------
D|-0-----0------0--0-----0---0-------------
A|-----------------------------------------
E|-7---7------7----7---7-----7-------------

Primeira Parte:

D5(9)        D5(7M/9)
      Meu caminho é cada manhã
D5(9)         D5(7M/9)          Bm7(11)
      Não procure saber onde estou

        Bm7(9/11)         Bm7(11)
Meu destino não é de ninguém
          A4(7)                    D5(9)
E eu não deixo os meus passos no chão

      D5(7M/9)           D5(9)
Se você não entende não vê
           D5(7M/9)
Se não me vê não entende

Bm7(11)         Bm7(9/11)         Bm7(11)
        Não procure saber onde estou
          Bm7(9/11)     G7M
Se o meu jeito te surpreende

Segunda Parte:

          G4+(6)        G7M
Se o meu corpo virasse sol
            G4+(6)        Em7(9)
Se a minha mente virasse sol
         Em7(13)
Mas só chove, chove
Em7(9)          Em7(13)
       Chove, chove

( D9  A/C#  G6/B ) (2x)

Primeira Parte com variação na letra:

D5(9)        D5(7M/9)       D5(9)
      Se um dia eu pudesse ver
        D5(7M/9)
Meu passado inteiro

Bm7(11)      Bm7(9/11)         Bm7(11)
        E fizesse parar de chover
        Bm7(9/11)
Nos primeiros erros

Segunda parte com variação na letra:

G7M      G4+(6)        G7M
    Meu corpo viraria sol
       G4+(6)        Em7(9)
Minha mente viraria sol

         Em7(13)
Mas só chove, chove
Em7(9)
    Chove, chove

( D  E/D ) (2x)

Primeira Parte com variação na letra:

D        D5(7M/9)
  Se um dia eu pudesse ver

D         D5(7M/9)
  Meu passado inteiro

Bm7(11)      Bm7(9/11)         Bm7(11)
        E fizesse parar de chover

        Bm7(9/11)
Nos primeiros erros

Segunda Parte com variação na letra:

G7M      G4+(6)           G7M
    Meu corpo viraria sol
       G4+(6)           Em7(9)
Minha mente viraria sol

         Em7(13)
Mas só chove, chove
Em7(9)          Em7(13)
       Chove, chove

G7M      G4+(6)           G7M
    Meu corpo viraria sol
       G4+(6)       Em7(9)
Minha mente viraria

         Em7(13)
Mas só chove, chove
Em7(9)          Em7(13)
       Chove, chove

G7M      G4+(6)           G7M
    Meu corpo viraria sol
       G4+(6)           Em7(9)
Minha mente viraria sol
         Em7(13)
Mas só chove, chove
Em7(9)          Em7(13)
       Chove, chove

( D9  A/C#  G/B ) (2x)

( D5(9)  E/D  D5(9) )
Acordes para:

    0 comentários

      mostrar mais comentários

      Conseguiu tocar?

      296tocaram10ainda não

      Grave um vídeo tocando Primeiros Erros e mande pra gente!

      00:00 / 00:00
      outros vídeos desta música
      repetirqualidadeautomática
      Outro vídeos desta música
        00:00 / 00:00
        automática
        Capítulos
        • Início
        • Tocando a música
        • Acordes da Introdução
        • Tocando Introdução
        • Ensinando Introdução
        • Acordes da Primeira Parte
        • Tocando Primeira e Segunda Parte
        • Ensinando Primeira Parte e Segunda Parte
        • Encerramento
        OK