Cifra Club

Tudo Que Vai

Capital Inicial

Cifra: Principal
exibições 1.361.662
Tom: A
(solo intro)

(1ª parte)
   A                 Bm/A
E|----------9-------------------10----------|
B|-----10-----10----------12-------12-------|
G|---9----9------9-9---11----11-------11-11-|
D|------------------------------------------|
A|-0-----------------0----------------------|
E|------------------------------------------|

(2ª parte)
   D                    Dm7(6)
E|------------12-10----------------7--------|
B|------10----------12-10------6-----6------|
G|---11----11----------------7---7-----7-7--|
D|-0-----------------------0----------------|
A|------------------------------------------|
E|------------------------------------------|

(3ª parte)
   A                   Bm/A
E|----------10h9-----------------10---------|
B|-----10-------10----------12-----12-------|
G|---9----9--------9-9---11----11-----11-11-|
D|------------------------------------------|
A|-0-------------------0--------------------|
E|------------------------------------------|

(4ª parte)
   D                      Dm7(6)
E|------------12-10---------7---------------|
B|------10----------12-10---6---------------|
G|---11----11---------------5---------------|
D|-0------------------------0---------------|
A|------------------------------------------|
E|------------------------------------------|

(primeira parte)
 A9       A7M(9)
Hoje é o dia
     D               Dm
Eu quase posso tocar o silêncio
   A9     A7M(9)
A casa vazia
 D                  Dm
Só as coisas que você não quis
    A9          A7M(9)
Me fazem companhia
    D
Eu fico à vontade
       Dm             Bm       D
Com a sua ausência aaaahhhh...
           Bm        D         Dm
Eu já me acostumei a esquecer

(refrão)
          A9
Tudo que vai
         A5+(9)          D7M
Deixa o gosto, deixa as fotos
  E           A9
Quanto tempo faz
          A5+(9)           D7M
Deixa os dedos, deixa a memória
    E
Eu nem me lembro

(segunda parte)
 A9       A7M(9)
Salas e quartos
 D                   Dm
Somem sem deixar vestígio
     A9         A7M(9)
Seu rosto em pedaços
 D                   Dm
Misturado com o que não sobrou
     A9       A7M(9)
Do que eu sentia
    D                        Dm    Bm
Eu lembro dos filmes que eu nunca vi
D           Bm             D         Dm
  Passando sem parar em algum lugar

(refrão)
          A9
Tudo que vai
         A5+(9)          D7M
Deixa o gosto, deixa as fotos
  E           A9
Quanto tempo faz
          A5+(9)           D7M
Deixa os dedos, deixa a memória
    E             A9
Eu nem me lembro mais

        A5+(9)          D7M
Fica o gosto, ficam as fotos
  E           A9
Quanto tempo faz
          A5+(9)          D7M
Ficam os dedos, fica a memória
    E
Eu nem me lembro mais

(repete intro com partes invertidas)

(3ª parte)
   A                    Bm/A
E|----------10h9-----------------10---------|
B|-----10-------10----------12-----12-------|
G|---9----9--------9-9---11----11-----11-11-|
D|------------------------------------------|
A|-0-------------------0--------------------|
E|------------------------------------------|

(4ª parte)
   D                      Dm7(6)
E|------------12-10---------7---------------|
B|------10----------12-10---6---------------|
G|---11----11---------------5---------------|
D|-0------------------------0---------------|
A|------------------------------------------|
E|------------------------------------------|

(terceira parte)

"Quanto tempo eu já nem sei..."

(1ª parte)
   A                  Bm/A
E|----------9-------------------10----------|
B|-----10-----10----------12-------12-------|
G|---9----9------9-9---11----11-------11-11-|
D|------------------------------------------|
A|-0-----------------0----------------------|
E|------------------------------------------|

(2ª parte)
   D                    Dm7(6)
E|------------12-10----------------7--------|
B|------10----------12-10------6-----6------|
G|---11----11----------------7---7-----7-7--|
D|-0-----------------------0----------------|
A|------------------------------------------|
E|------------------------------------------|

        A                Bm/A
Quanto tempo, eu já nem sei
              D  Dm6
mais o que é meu
      A        A5-  A11  Dm7
Nem quando, nem onde

(refrão)
          A9
Tudo que vai
         A5+(9)          D7M
Deixa o gosto, deixa as fotos
  E           A9
Quanto tempo faz
          A5+(9)           D7M
Deixa os dedos, deixa a memória
    E             A9
Eu nem me lembro mais

        A5+(9)             D7M
Fica o gosto, ficam as fotos
  E           A9
Quanto tempo faz
          A5+(9)          D7M
Ficam os dedos, fica a memória
    E             A9
Eu nem me lembro mais
    A5+(9)        D7M
Eu nem me lembro mais
    E             A9
Eu nem me lembro mais
    A5+(9)        D7M
Eu nem me lembro mais
    E
Eu nem me lembro mais

(repete intro)
Acordes para:

    0 comentários

      mostrar mais comentários

      Conseguiu tocar?

      103tocaram1ainda não

      Grave um vídeo tocando Tudo Que Vai e mande pra gente!

      00:00 / 00:00
      outros vídeos desta música
      repetirqualidadeautomática
      Outro vídeos desta música
        00:00 / 00:00
        automática
        Capítulos
        • Início
        • Acordes da introdução
        • Tocando introdução
        • Ensinando solo da intro (parte 1)
        • Ensinando solo da intro (parte 2)
        • Ensinando solo da intro (parte 3)
        • Ensinando solo da intro (parte 4)
        • Tocando solo (tablatura)
        • Acordes da primeira parte
        • Tocando primeira parte
        • Ensinando ritmo da música
        • Acordes do refrão
        • Tocando refrão
        • Acordes da terceira parte
        • Tocando refrão e terceira parte
        • Ensinando ritmo da terceira parte
        • Tocado trecho da música
        • Encerramento
        OK