Cifra Club

À Sua Maneira

Capital Inicial

Cifra: Principal
exibições 2.930.949
Tom: D
Intro: Bm  G  D  A (4x)

Riff da Intro:

E|-----------------------------------------------------|
B|-10/12--12-x-x-12/14--14-x-x-14\---------------------|
G|-----------x-x-----------x-x-------------------------|
D|--7/-9---9-x-x--9/11--11-x-x-11\---------------------|
A|-----------------------------------------------------|
E|-----------------------------------------------------|

Primeira Parte:

Bm      G  D       A             Bm   G  D  A
Ela dormiu   no calor dos meus braços
  Bm      G         D     A       Bm  G  D  A
E eu acordei sem saber se era um sonho
   Bm          G  D     A           Bm  G  D  A
Algum tempo atrás   pensei em te dizer
        Bm     G      D        A          Bm  G  D  A
Que eu nunca caí nas suas armadilhas de amor

Refrão:

 Bm       G  D    A     Bm   G  D  A
Naquele amor   à sua maneira
    Bm        G    D    A       Bm   G  D  A
Perdendo meu tempo   a noite inteira

Base Primeiro Solo: Bm  G  D  A (4x)

Primeiro Solo:

Parte 1 de 4

E|-------------------------------------------------|
B|-------------------------------------------------|
G|-------------------------------------------------|
D|-------------------------------------------------|
A|-/2-4-4h5~--/5-5-4--2p0---------2~--p0h2p0-------|
E|------------------------0h2--5-------------------|

Parte 2 de 4

E|-------------------------------------------------|
B|-------------------------------------------------|
G|----------------------------7~--7----------------|
D|------------------------9---7~--7----------------|
A|-x-x-2-2-4-4h5--7/9~--9---9-------x-x------------|
E|-------------------------------------------------|

Parte 3 de 4

E|-------------------------------------------------|
B|-------------------------------------------------|
G|-----7--7--x-x-----7--x-x-7~~--------------------|
D|-----7--7--x-x-----7--x-x-7~~--------------------|
A|-7h9-----------7h9-------------------------------|
E|-------------------------------------------------|

Parte 4 de 4

E|-------------------------------------------------|
B|-------------------------------------------------|
G|-------------------------------------------------|
D|-------------------------------------------------|
A|-7b8r7p5--7b8r7--5\4\2~~-------------------------|
E|-------------------------------------------------|

Segunda Parte:

 Bm       G  D  A         Bm   G  D  A
Não mandarei   cinzas de rosas
     Bm          G  D     A         Bm   G  D  A
Nem penso em contar   os nossos segredos

Refrão:

 Bm       G  D    A     Bm   G  D  A
Naquele amor   à sua maneira
    Bm        G    D    A       Bm   G  D  A
Perdendo meu tempo   a noite inteira

Base Segundo Solo: Bm  G  D  A (4x)

Segundo Solo:

Parte 1 de 4

E|-----------------------------------------------------|
B|-/12-----10~-----12~------10~------12----10\---------|
G|------11------11-------11-------11----11-------------|
D|-----------------------------------------------------|
A|-----------------------------------------------------|
E|-----------------------------------------------------|

Parte 2 de 4

E|-----------------------------------------------------|
B|-----------------------------------------------------|
G|-/9~---7~---7h9~---7-7-7-6-7-6\----------------------|
D|-----------------------------------------------------|
A|-----------------------------------------------------|
E|-----------------------------------------------------|

Parte 3 de 4

E|-/12---12-10~---10-10h12~---10-10-10-9h10-9----------|
B|--------------------------------------------10-------|
G|-----------------------------------------------------|
D|-----------------------------------------------------|
A|-----------------------------------------------------|
E|-----------------------------------------------------|

Parte 4 de 4

E|-----------------------------------------------------|
B|-10/12--12-12-12\7--7-7-7/10--10-10-10\5--5-5-5/7----|
G|-----------------------------------------------------|
D|-----------------------------------------------------|
A|-----------------------------------------------------|
E|-----------------------------------------------------|

Parte 4 de 4

E|-----------------------------------------------------|
B|-7-7-7\3--3-3-2h3-2-3--------------------------------|
G|----------------------4~-----------------------------|
D|-----------------------------------------------------|
A|-----------------------------------------------------|
E|-----------------------------------------------------|

Repete Primeira Parte:

Bm      G  D       A             Bm   G  D  A
Ela dormiu   no calor dos meus braços
  Bm      G         D     A       Bm  G  D  A
E eu acordei sem saber se era um sonho
   Bm          G  D     A           Bm  G  D  A
Algum tempo atrás   pensei em te dizer
        Bm     G      D        A          Bm  G  D  A
Que eu nunca caí nas suas armadilhas de amor

Refrão:

 Bm       G  D    A     Bm   G  D  A
Naquele amor   à sua maneira
    Bm        G    D    A       Bm   G  D  A
Perdendo meu tempo   a noite inteira

 Bm       G  D    A     Bm   G  D  A
Naquele amor   à sua maneira
    Bm        G    D    A       Bm   G  D
Perdendo meu tempo   a noite inteira
   A       Bm   G  D
A noite inteira
   A       Bm   G  D
A noite inteira
   A       Bm   G  D
A noite inteira
   A       Bm   G  D  A
A noite inteira

Bm
Ela dormiu no calor dos meus braços
Acordes para:

    0 comentários

      mostrar mais comentários

      Conseguiu tocar?

      594tocaram6ainda não

      Grave um vídeo tocando À Sua Maneira e mande pra gente!

      00:00 / 00:00
      outros vídeos desta música
      repetirqualidadeautomática
      Outro vídeos desta música
        00:00 / 00:00
        automática
        Capítulos
        • Tocando a música
        • Dicas Iniciais
        • Acordes da música
        • Dicas / Equipamentos
        • Tocando Introdução
        • Ritmo da música
        • Riff da Introdução
        • Dicas Primeira Parte
        • Tocando Primeira Parte
        • Dicas Refrão
        • Tocando Primeiro Refrão
        • Tocando Primeiro Solo
        • Primeiro Solo - Parte 1 de 4
        • Primeiro Solo - Parte 2 de 4
        • Primeiro Solo - Parte 3 de 4
        • Primeiro Solo - Parte 4 de 4
        • Base do Solo - Parte 1 de 4
        • Base do Solo - Parte 2 de 4
        • Base do Solo - Parte 3 de 4
        • Base do Solo - Parte 4 de 4
        • Base do Solo
        • Tocando Segunda Parte - Segundo Solo
        • Segundo Solo - Parte 1 de 4
        • Segundo Solo - Parte 2 de 4
        • Segundo Solo - Parte 3 de 4
        • Segundo Solo - Parte 4 de 4
        • Segundo Solo
        • Dicas Terceira Parte
        • Tocando Terceira Parte - Terceiro refrão
        • Dicas Final
        • Pentatônica - Si Menor
        • Ideias - Frase I
        • Ideias - Frases II
        • Ideias - Frase III
        • Encerramento
        • Ficha Técnica /Erros de Gravação
        OK