Cifra Club

Pra Sempre

CPM 22

Cifra: Principal (violão e guitarra)
tom: Bb (forma dos acordes no tom de C) Afinação: D G C F A D
Intro:

   C
E|-----0-0-0-0-----0-0-0-0------0-0---------|
B|-1---1-1-1-1--1--1-1-1-1---1--1-1---------|
G|-0---0-0-0-0--0--0-0-0-0---0--0-0---------|
D|-2h3-2-2-2-2--0--2-2-2-2---2--2-2---------|
A|-3---3-3-3-3--3--3-3-3-3---3--3-3---------|
E|------------------------------------------|

C  F7M/C  G5  (2x)


Primeira Parte: 

             C
Dizem quando é pra ser 

Um triste amanhecer
          F7M/C                       G5
O teu sorriso não está mais entre nós
          C
Vou lamentar pra que

Talvez seja você
           F7M/C                G5
Que ai de cima nós fará bem melhor
           C
Mais tarde eu pensei

Até ajoelhei
             F7M/C              G5
Deus não me julgue, não leve a mal
            C
Lembrei de toda a nossa infância
         Am7             G5
Vou guardar no melhor lugar


Refrão:

     C     Am7
Pra sempre
            G5
Eu vou guardar
                 C     Am7  G5
Vou lembrar pra sempre


Repete a Primeira Parte:

        C
Ouvi palavras que
 
Me deram mais poder
         F7M/C             G5
O seu espírito está entre nós
           C
Não vamos te esquecer

Não vamos nos perder
         F7M/C                     G5
Nossa família agora é o meu bem maior
            C
Eu sei quando errei

Eu já me condenei
            F7M/C           G5
Deus me perdoe não fiz por mal
       C
Eternamente em nossas lembranças
         Am7                G5
Vou guardar no melhor lugar


Refrão:

     C     Am7
Pra sempre
            G5
Eu vou guardar
                 C     Am7  G5
Vou lembrar pra sempre

Tenho fé


Solo: 


1-

E|------------------------------------------------------|
B|-8~-----8~-----8~-----5~------------------------------|
G|----0-0----0-0----0-0----0-0-7-----4-----5-----4------|
D|-------------------------------5-5---5-5---5-5--------|
A|------------------------------------------------------|
E|------------------------------------------------------|


2-

E|--------------------------------------0-----0--0---0--|
B|---------0--8-----8-----8-----5-------12b13-12-12--8~-|
G|-----0h2------0-0---0-0---0-0---0-0-7-0-----0--0---0--|
D|-0h2--------------------------------------------------|
A|------------------------------------------------------|
E|------------------------------------------------------|


3-

E|-14-x-14\12-12-12\10-10-10\8-8-8-x-8-8/10-10-10-------|
B|------------------------------------------------------|
G|-12-x-12\9--9--9-\7--7--7-\5-5-5-x-5-5/7--7--7--------|
D|------------------------------------------------------|
A|------------------------------------------------------|
E|------------------------------------------------------|

E|------------------------------------------------------|
B|-12-12-12\-x--8--8------------------------------------|
G|------------------------------------------------------|
D|-9--9--9-\-x--5--5------------------------------------|
A|------------------------------------------------------|
E|------------------------------------------------------|


4-

E|-----------------8------------------------------------|
B|-------------------8---------------------8---8-10~----|
G|---------5-7-7b9-----9r7--5-7p5---5--7/9---9----------|
D|-----5h7------------------------7---------------------|
A|-5h7--------------------------------------------------|
E|------------------------------------------------------|


5-

E|---5---5---5---5--/---8----8---/---10----10-----------|
B|-6---6---6---6---6/10---10---10/12----12--------------|
G|------------------------------------------------------|
D|------------------------------------------------------|
A|------------------------------------------------------|
E|------------------------------------------------------|

E|---7---7---7--/---10----10----10---\---8----8---------|
B|-8---8---8---8/12----12----12----12\10---10-----------|
G|------------------------------------------------------|
D|------------------------------------------------------|
A|------------------------------------------------------|
E|------------------------------------------------------|


6-

E|---/-------12----12----12----12--12--12--12\10--------|
B|-10/13--13----13----13----13-----13--13--13\12--------|
G|------------------------------------------------------|
D|------------------------------------------------------|
A|------------------------------------------------------|
E|------------------------------------------------------|

E|----10\8-----8\7----7---7---7-------------------------|
B|-12---\10-10--\8--8---8---8---------------------------|
G|------------------------------------------------------|
D|------------------------------------------------------|
A|------------------------------------------------------|
E|------------------------------------------------------|

7-
E|---5---5---5--/---8----8----8---\---10----10--7-----15|
B|-6---6---6---6/10---10---10---10\12----12-----8--15---|
G|------------------------------------------------------|
D|------------------------------------------------------|
A|------------------------------------------------------|
E|------------------------------------------------------|


F  G5  C  Am7  (3x)
F  G5


Repete a Primeira Parte:

        C
Ouvi palavras que
 
Me deram mais poder
         F7M/C             G5
O seu espírito está entre nós
           C
Não vamos te esquecer

Não vamos nos perder
         F7M/C                     G5
Nossa família agora é o meu bem maior
            C
Eu sei quando errei

Eu já me condenei
            F7M/C           G5
Deus me perdoe não fiz por mal
       C
Eternamente em nossas lembranças
         Am7                G5
Vou guardar no melhor lugar


Refrão Final:

     C     Am7
Pra sempre
            G5
Eu vou guardar
                   
Vou lembrar 
     C     Am7
Pra sempre
            G5
Eu vou guardar
                
Vou lembrar 
     C     Am7
Pra sempre
            G5
Eu vou guardar
                 
Vou lembrar 
     C     Am7
Pra sempre
            G5
Eu vou guardar
                 F
Vou lembrar pra sempre
Composição de Luciano
Colaboração e revisão:
  • Gustavo Cunha
  • Henrique Temístocles
  • Vinicius Caverzan
114.819 exibições
  • Simplificar cifra
    • ½ Tom
    • A
    • Bb
    • B
    • C
    • Db
    • D
    • Eb
    • E
    • F
    • F#
    • G
    • Ab
  • Adicionar à lista

    0 comentários

    Ver todos os comentários

    Conseguiu tocar?

    21 Tocaram 0 Ainda não

    Grave um vídeo tocando Pra Sempre e nos envie!

    00:00 / 00:00
    Outros vídeos desta música
    Repetir Qualidade Automático
    Outros vídeos desta música
    00:00 / 00:00
    Automático
    Capítulos
    • Tocando a música
    • Dicas Iniciais / Equipamentos
    • Acordes da música
    • Tocando Introdução - Refrão
    • Ritmo da música
    • Introdução
    • Tocando o Solo
    • Solo - Parte 1 de 7
    • Solo - Parte 2 de 7
    • Solo - Parte 3 de 7
    • Solo - Parte 4 de 7
    • Solo - Parte 5 de 7
    • Solo - Parte 6 de 7
    • Solo - Parte 7 de 7
    • Acordes Afinação Padrão
    • Encerramento
    • Ficha Técnica

    Cifra Club Pro

    Aproveite o Cifra Club com benefícios exclusivos e sem anúncios
    Cifra Club Pro
    Aproveite o Cifra Club com benefícios exclusivos e sem anúncios
    OK