Enviar cifraEntrar

Perdas

CPM 22

Cifra: Principal
exibições 45.534
Tom: G
Intro: G Am7 G/B C9


        G             Am7             G/B            C9
E|--3--------------0--------------3--------------3----0--------------------|
B|--3------3-------1------1-------3------3-------3------3------------------|
G|--0--0-0---0-0---0--0-0---0-0---0--0-0---0-0---0--5-----0-0--------------|
D|--0--------------2--------------0--------------2-------------------------|
A|--2--------------0--------------2--------------3-------------------------|
E|--3----------------------------------------------------------------------|



 G                                  Am7
Temos que absorver as perdas que a vida nos impõe,
   G/B                                        C9
As perdas que às vezes nos derrubam e não há tempo pra depois
G                                          Am7
Vivo sempre de cabeça erguida e encontro forças dentro de mim
  G/B                                     C9
E agora restam aquelas velhas fotos do tempo que passou...


  C9          D           Em    D5                               Riff
Já sei, não é a primeira vez...                            E|------10---|    E|--10-|


  C9          D            Em   D5                          B|-----8--8--|    B|--8--|
Cansei, de perguntar por que...                            G|----7----7-|10x G|--7--|


 C9            D4               G G/F#    Em                D|---7-------|    D|--7--|
Só o que me deixa puto é não ter tido tempo pra dizer,     A|-----------|    A|-----|

C9          D                                              E|-----------|    E|-----|
Tudo pra você!

G               D/F#    Em7         D4            C9
Melhor deixar rolar, nada como um dia após o outro...
G               D/F#    Em7         D4            C9
Continuar, viver, tenho que me levantar de novo
      D                       G     Am    Bm    C9
e acreditar "Dias melhores virão"

Base do solo:  G  Am  Em  C9



E|-----3-------3------3-----3---3--5-3-----------------------------------------------------|
B|-2h3----2h3----2h3----2h3--2h3-------5-3--------------------------------------3-3--------|
G|-----------------------------------------5--0-2-0-2-4-4-----0-2-4-4-2-0-0-4-2------------|
D|-----------------------------------------------------------------------------------------|
A|-----------------------------------------------------------------------------------------|
E|-----------------------------------------------------------------------------------------|


E|-------------------------------------------------------------------------|
B|-------------------------------------------------------------------------|
G|-----------0-2/4-5p4-----------------------------------------------------|
D|-------0h2-----------5---5-----------------------------------------------|
A|-----2-----------------5-------------------------------------------------|
E|-2/3---------------------------------------------------------------------|


E|10-10-10-------10-10-10------10-10------8-8-8-7-7-7---------------------------------------|
B|---------8-8-8---------8-8-8-------8-8-------------8-8------------8-----------------------|
G|-------------------------------------------------------9--9-9-7-9-------------------------|
D|------------------------------------------------------------------------------------------|
A|------------------------------------------------------------------------------------------|
E|------------------------------------------------------------------------------------------|


E|10-10-10-------10-10-10------10-10-----10/12-12-12-10-10/7--7-7-8-7--------------------------|
B|---------8-8-8---------8-8-8-------8-8------------------------------10-8-10-8----------------|
G|---------------------------------------------------------------------------------------------|
D|---------------------------------------------------------------------------------------------|
A|---------------------------------------------------------------------------------------------|
E|---------------------------------------------------------------------------------------------|



 C9          D           Em    D4
Já sei, não é a primeira vez...
 C9          D            Em   D
Cansei, de perguntar por que...

C9            D               G        Em            C         D
E o que me faz feliz é ter certeza que você está bem, sinto você!

G               D/F#    Em7         D4            C9
Melhor deixar rolar, nada como um dia após o outro...
G               D/F#    Em7         D4            C9
Continuar, viver, temos que nos encontrar de novo
 D                          C
e acreditar "Dias melhores virão"
D
E acreditar...

G               D/F#    Em7         D4            C9
Melhor deixar rolar, nada como um dia após o outro...
D
Continuar, viver,
G               D/F#    Em7         D4            C9
E quando o sol nascer temos que recomeçar de novo
D                              G
e acreditar "Dias melhores virão."
D/F#       Em7        D4              C
Espere o melhor, prepare-se para o pior
D                  G
e aceite o que vier...
D/F#        Em7         D4             C
Espere o melhor, prepare-se para o pior
D4
e aceite o que
D9                 G
e aceite o que vier!!!
  • 1
  • 2
  • 3
  • 4
  • 5
  • 6
  • 7
  • 8
  • 9
  • 10
  • 11
  • 12
    Acordes para:
      Composição: Badauí e Ricardo GalanoColaboração e revisão:

      0 comentários

        mostrar mais comentários

        Conseguiu tocar?

        21tocaram0ainda não

        Grave um vídeo tocando Perdas e mande pra gente!

        00:00 / 00:00
        outros vídeos desta música
        repetirqualidadeautomática
        • automática
        Outro vídeos desta música
          00:00 / 00:00
          automática
          • automática
          Acordes para:violão e guitarra
          dificuldadeexibiçõescontribuições
          fecharplay/pause subir/descer velocidade
            acordes
            fechar
            OK
            Feedback