Notificações Amigos pendentes

      CPM 22

      Desconfio

      436.047 exibições
      Tom: D
      Verso:
                                 D5
      Sei como que as coisas são
                   G5                 Bm5           A5                    G5 
      Mas nunca que vou compreender, ignorância e julgamento, sem porque
              D5             G5                
      ideias que, foram deixadas para trás 
      Bm5                       A5                G5
      Seguir em frente, o que passou não volta mais
      
      Pré-refrão:
      A5              G5             D5
      facilmente não existe por aqui
      A5                  G5              D5
      simplesmente não é assim como se diz
      A5                G5
      posso até estar errado mas nem penso em desistir
      
      
      Pré-refrão/Guitarra 2:
      
      
      E||---------------------10-10-10-||
      B||-10-----------8-8-8--10-10-10-||
      G||-9---8vezes---7-7-7-----------||
      D||------------------------------||
      A||------------------------------||
      E||------------------------------||
      
      
      
      Refrão:
      D5        G5    Bm5    A5
      Desconfio que, foi sempre assim
      D5         G5    Bm5  A5
      Chega de mentir, e de iludir
      D5         G5       Bm5        A5
      Encarar de frente, ao que temos a fazer
      D5        G5    Bm5          A5
      Desconfio que, é bem melhor assim
      
      
      Refrão/ Guitarra 2:
      
      E||-10-10-10-10-10--9--9--9--9-10-10-10-10--9-12-12-12-12-|
      B||-10-10-10-10-10-10-10-10-10-10-10-10-10-10-10-10-10-10-|
      G||-------------------------------------------------------|
      D||-------------------------------------------------------|
      A||-------------------------------------------------------|
      E||-------------------------------------------------------|
      
      
      
      
      Riff: 
      
      E||--------------------------------||
      B||--------------------------------||
      G||--------------------------------||
      D||-7-7-7-7-7-7-6/7-7--7-7-7-7-6/7-||
      A||-5-5-5-4-5-5-4/5-5--5-5-5-5-4/5-||
      E||--------------------------------||
      
      
      
      Verso:
      D5                         G5 
      Ouvi dizer, muitos não estão mais nem aí
                 Bm5            A5              G5
      para as palavras de um homem que está bem perto daqui
      D5                        G5
      Melhor Correr, enquanto há tempo para nós
                 Bm5           A5           G5
      Antes que tudo vá pros ares sem ouvir a nossa voz
      
      Pré-refrão:
      A5              G5             D5
      Facilmente não existe por aqui
      A5                  G5              D5
      Simplesmente não é assim como se diz
      A5                 G5
      mesmo assim não vou me arrepender daquilo que não fiz
      
      Refrão:
      D5        G5    Bm5     A5
      Desconfio que, foi sempre assim
      D5         G5    Bm5  A5
      Chega de mentir, e de iludir
      D5         G5       Bm5        A5
      Encarar de frente, ao que temos a fazer
      D5        G5    Bm5          A5
      Desconfio que, é bem melhor assim
      
      
      E||----------------------------------------||
      B||----------------------------------------||
      G||--------------------------------7-7-7-7-||
      D||-7-7-7-7-7-7-6/7-7--7-7-7-7-6/7-7-7-7-7-||
      A||-5-5-5-4-5-5-4/5-5--5-5-5-5-4/5-5-5-5-5-||
      E||----------------------------------------||
      
      
      Ponte: E|-G|-D 3x E|-G|-A
      
      SOLO
      
      e||------------------------------------|
      B||-8-8-7-8-7------8-7-----------------|
      G||-----------9-7 -----7-9-7-----------|
      D||------------------------------------|
      A||------------------------------------|
      E||------------------------------------|
      
      
      e||---------------------------------------|
      B||-8-8-7-8-7-----------------------------|
      G||-----------7-9-7----7---7--7-9-7-------|
      D||-----------------9---9---9-------------|
      A||---------------------------------------|
      E||---------------------------------------|
      
      
      e||------------------------------------|
      B||-8-8-7-8-7------8-7-----------------|
      G||-----------9-7 -----7-9-7-----------|
      D||------------------------------------|
      A||------------------------------------|
      E||------------------------------------|
      
      
      e||------------------------------------------------------------------|
      B||-8-8-7-8-7-----10-8-7-8-7------10-8-7-8-10-8-7/8-7----------------|
      G||-----------9-7------------7------------------------7~-------------|
      D||------------------------------------------------------------------|
      A||------------------------------------------------------------------|
      E||------------------------------------------------------------------|
      
      
      Refrão:
      D5        G5    Bm5     A5
      Desconfio que, foi sempre assim
      D5         G5    Bm5  A5
      Chega de mentir, e de iludir
      D5         G5       Bm5        A5
      Encarar de frente, ao que temos a fazer
      D5        G5    Bm5          A5
      Desconfio que, é bem melhor assim
      D5        G5    Bm5          A5
      Desconfio que, é bem melhor assim
      D        G    Bm          A
      Desconfio que, é bem melhor assim
      
      Final: Bm5,A5,D5  2 vezes
      
      Riff Final: 
      
      E||--------10----10---------10--------||
      B||-----------10----10------------10~-||
      G||-----------------------------------||
      D||-----------------------------------||
      A||-9-7----------------9-7------------||
      E||-7-5----------------7-5------------||
      
        Composição: LucianoColaboração e revisão:
        • Élison
        • Paulo
        • rtx2
        • tescaro
        • +2

        Comentários 0

        140 .
        140 cancelar
        0:00 / 0:00

        Capítulos

          2 versões de violão dificuldade exibições contribuição e correção
          2 versões de guitarra dificuldade exibições contribuição e correção
          2 versões de cavaco dificuldade exibições contribuição e correção
          2 versões de teclado dificuldade exibições contribuição e correção
          2 versões de baixo exibições contribuição e correção
          1 versão de bateria exibições contribuição e correção
          1 versão de Guitar Proformatodownloadscontribuição
          play/pausefechar subir/descer velocidade
          6ª corda E5ª corda A4ª corda D3ª corda G2ª corda B1ª corda E
            acordes
            publicidade
            fechar
            ok