Cifra Club

Sonhos e Planos

CPM 22

Cifra: Principal (violão e guitarra)
tom: C
Versão 1
-======-

Intro: C

G
  Ao mesmo tempo
                         F  
  Que tudo se encaixe em seu lugar
         C
  Vou continuar
G
  Com os meus planos
                     F
  De ter algo pra poder viver
           C
  Sem ter que sofrer
Am                      C   
  Mas insistem em jogar
                       G  
  Nosso orgulho em algum lugar
          D         
  Que não tem mais como
    F                        C     
  Levar adiante o sonho de viver
             

 G
  Ao mesmo tempo
                           F  
  Que tudo se encaixe em seu lugar
          C                    
  Vou continuar                   
G                             
  Com os meus planos            
                       F     
  De ter algo pra poder viver
             C
  Sem ter que sofrer
Am                      C   
  Mas insistem em jogar
                       G  
  Nosso orgulho em algum lugar
             D         
  Que não tem mais como
    F                        C              
  Levar adiante o sonho de viver  (eeeeeeee)   
  
                  G   D
  Quero viver em paz
F    C             G  D    F C    G   D     F 
  Sonho de viver em paz,          em paz

    C             G  D F C 
  Sonho de viver em pazzzzzzz

(solo...) G D F C 4x

Am                 C
  Mas não vou desanimar 
                    G       
  Isso tudo vai ter que mudar
        D
  Onde vai parar?
       F                      C
  A verdade tem que um dia aparecer  (eeeeeeee)   

(refrão denovo 2x)





___________________________________________________________________




Versão 2
-======-



verso: G, F, C
e||-------------------------------------------------------||
B||-------------------------------------------------------||
G||-12-12-12-12---12-12-12-12---12-12-12-12---------------||
D||-12-12-12-12---12-12-12-12---10-10-10-10---10-10-10-10-||
A||-10-10-10-10---10-10-10-10---8--8--8--8----10-10-10-10-||
E||-------------------------------------------8--8--8--8--||
ao mesmo tempo 
que tudo se encaixa em seu lugar vou cotinuar
com meus planos 
de ter algo pra poder viver sem ter que sofrer

riff
e||-5/7-------7-----||
B||-----7-5-7-------||
G||-----------------||
D||-----------------||
A||-----------------||
E||-----------------||

prerefrao: so os acordes
e||-----------------------------||
B||-----------------------------||
G||-2----5---------7----10----5-||
D||-2----5----5----7----10----5-||
A||-0----3----5----5----8-----3-||
E||-----------3-----------------||
mas insistem em jogar nosso orgulho em algum lugar 
que nao tem mais como levar adiante sonho de viver

Riff2: Distorcido
e||---------||
B||---------||
G||-5-5-5-5-||
D||-5-5-5-5-||
A||-3-3-3-3-||
E||---------||

verso2: G, F, C
e||---------------------------------||
B||---------------------------------||
G||-------------------------5-5-5-5-||
D||-5-5-5-5-5-5-5-5-3-3-3-3-5-5-5-5-||
A||-5-5-5-5-5-5-5-5-3-3-3-3-3-3-3-3-||
E||-3-3-3-3-3-3-3-3-1-1-1-1---------||
  |
e||---------------------------------------------------||
B||---------------------------------------------------||
G||-12-12-12-12---12-12-12-12---12-12-12-12---5-5-5-5-||
D||-12-12-12-12---12-12-12-12---10-10-10-10---5-5-5-5-||
A||-10-10-10-10---10-10-10-10---8--8--8--8----3-3-3-3-||
E||---------------------------------------------------||
ao mesmo tempo 
que tudo se encaixa em seu lugar vou cotinuar
com meus planos 
de ter algo pra poder viver sem ter que sofrer

prerefrao

refrao: G, D, F, C
e||------------------||
B||------------------||
G||-----7---10---5---||
D||-5---7---10---5---||
A||-5---5---8----3---||
E||-3----------------||
quero viver em paz
sonho de viver em paz
em paz sonho de viver em paz

solo: G, D, F
e||----------------------------------------------------------------------------------------||
B||----------------------------------------------------------------------------------------||
G||----------------------------------------------------------------------------------------||
D||-10-9--9-10-12---9-10-9--9-10-12~---9-10-9-7-9-7-5--2-5-0-2-0---9t-10t-12t-10t-9t-7t-5t-||
A||----------------------------------------------------------------------------------------||
E||----------------------------------------------------------------------------------------||
t=tremolo picking
Composição de Luciano
169.392 exibições
    • ½ Tom
    • A
    • Bb
    • B
    • C
    • Db
    • D
    • Eb
    • E
    • F
    • F#
    • G
    • Ab
  • Adicionar à lista

    0 comentários

    Ver todos os comentários

    Conseguiu tocar?

    11 Tocaram 1 Ainda não

    Grave um vídeo tocando Sonhos e Planos e nos envie!

    00:00 / 00:00
    Outros vídeos desta música
    Repetir Qualidade Automático
    Outros vídeos desta música
    00:00 / 00:00
    Automático

    Cifra Club Pro

    Aproveite o Cifra Club com benefícios exclusivos e sem anúncios
    Cifra Club Pro
    Aproveite o Cifra Club com benefícios exclusivos e sem anúncios
    OK