Notificações Amigos pendentes

      CPM 22

      Regina Let's Go!

      420.935 exibições
      Tom: D
      (intro) (guitarra 1 - base)  D5  A5  Em5  G5
      
      (recomendo a intro abaixo)
      
      E|-------------------------------------------------|
      B|-------------------------------------------------|
      G|-7-7-7-7-7-----------9-9-9-9-9-------------------|     2x
      D|-7-7-7-7-7-7-7-7-7-7-9-9-9-9-95-5-5-5-5----------|
      A|-5-5-5-5-5-7-7-7-7-7-7-7-7-7-75-5-5-5-5----------|
      E|-----------5-5-5-5-5----------3-3-3-3-3----------|
      
      
      (depois que a guitarra 1 acabar de tocar pela 2ª vez a intro
       entra a guitarra 2 - solo e a base acompanhando)
      
      E|-------------------------------------------------|
      B|-------------------------------------------------|
      G|----11/12-11----11/12-11-12-11-9-----------------|     4x
      D|-12----------12-------------------12~------------|
      A|-------------------------------------------------|
      E|-------------------------------------------------|
      
      
      D5                     A5                        Em5
       Em muitas vezes procurei tentar achar onde eu errei
                        G5
      em coisas que nem têm porque
      D5                    A5                        Em5
       Naquela vez te perguntei  você não soube responder
                     G5          D5
      o que eu tinha feito pra você
      
      (durante este verso  a guitarra solo faz o seguinte - e a base acompanhando)
      
      
          A5                 Em5
      Agora como eu vou saber              e|----------------|
      
      
              G5                     D5    B|----------------|
      Tem hora que é melhor esquecer       G|----11/12-11----|
      
      
            A5               Em5           D|-12-------------|
      Espera o dia amanhecer               A|----------------|
      
          G5                      D5       E|----------------|
      Pra ver o que a gente vai fazer
      
      (refrão)
      D5                A5                Em5
       Não me importa mais não ter como voltar
                    G5           D5
      É  eu não vou mais me importar
                       A5            Em5
      Qualquer coisa faz sua idéia mudar
                    G5           D5
      A gente ainda pode se entender
      
      (depois q termina o refrão  a guitarra solo faz isso aew "me pareçe ser uma distorção
       diferente dos outros solos da música"...e a base acompanhando...)
                   (depois da 12ª vez  termina o solo com a tab do lado...)
      
      E|----------------|            |-----------------------------------------------|
      B|----------------|            |-----------------------------------------------|
      G|----11/12-11----|            |-14-14-12-12-11-11----14-14-12-12-11-11-12-----|
      D|-12-------------|   12x      |-------------------12----------------------12~-|
      A|----------------|            |-----------------------------------------------|
      E|----------------|            |-----------------------------------------------|
      
      
      D5                     A5
       Em muitas vezes eu pensei em tentar falar o que eu nem
      Em5                       G5
      sei de coisas que eu já quis saber
      D5                    A5                        Em5
       Naquela vez te perguntei  você não soube responder
                     G5          D5
      o que eu tinha feito pra você
      
      (solinho acompanhando)
      
      
          A5                 Em5
      Agora como eu vou saber                        e|----------------|
      
      
              G5                     D5              B|----------------|
      Tem hora que é melhor esquecer                 G|----11/12-11----|
      
      
            A5               Em5                     D|-12-------------|
      Espera o dia amanhecer                         A|----------------|
      
          G5                      D5                 E|----------------|
      Pra ver o que a gente vai fazer
      
      (refrão)
      D5                 A5                Em5
       Não me importa mais não ter como voltar
                    G5           D5
      É  eu não vou mais me importar
                        A5            Em5
      Qualquer coisa faz sua idéia mudar
                       G5                  D5  A5
      quem sabe a gente pode se entender
      
      (assim que termina de falar "entender"  a guitarra solo entra
      com um outro solinho e vai até o final da música)
      
      
      |--------------------|
      |--------------------|
      |----9-11-12-11-9----|
      |-12-----------------|     9x até o final
      |--------------------|
      |--------------------|
      
      
      Em5               G5      D5     A5 Em5
      Daqui a pouco é tarde demais
          G5                  D5
      mas isso é entre eu e você
        Composição: Badauí / Gianfranco PortogalloColaboração e revisão:
        • o/
        • is_the_andy
        • Vinny Caim
        • Alê Magalhães
        • +5

        Comentários 4

        140 .
        • senna27 senna27: Em 01/03/2012 22:31

          boa cifra fácil esse solinho no final é meio estranho

        • mateus mateus: Em 08/03/2011 11:39

          consegui tocar bem com esta cifra só ñ peguei o solinho do final!!

        • nando_alvocore nando_alvocore: Em 15/12/2010 17:50

          Boa a Cifra, mas acho que o Wally faz a Segunda Guitar de outro jeito, não é esse o solinho...

          • jerffeson jerffeson: Em 09/09/2016 14:44

            Ele usa um capo pra fazer o solo

        140 cancelar

        conseguiu tocar?

        • •••

        covers

        Grave um vídeo tocando Regina Let's Go! e mande pra gente!

        Ex.: http://www.youtube.com/watch?v=0IvSvIwGdwk
        ver covers de outras músicas »
        0:00 / 0:00

        Capítulos

          2 versões de baixo exibições contribuição e correção
          1 versão de bateria exibições contribuição e correção
          1 versão de Guitar Proformatodownloadscontribuição
          play/pausefechar subir/descer velocidade
          6ª corda E5ª corda A4ª corda D3ª corda G2ª corda B1ª corda E
            acordes
            publicidade
            fechar
            ok