Me Ama (How He Loves)

Diante do Trono

 Diante do Trono
Inicio em: "...oh, ele me amou...")
G|-----------------------------------------------|
D|-----------------------------------------------|
A|------------2/5---------------2/5--5-----------|
E|--5--2--0---------5--2---0---------------------|

Entra em: "tem ciumes de mim..." até; Começo do solo de guitarra.
G|--------------------------------------------|
D|--------------------------------------------|
A|------------------2/5-5---------------------| (2x)
E|--5-5--2-2--0-0-----------------------------|

Entra em: Começo do solo de guitarra.
G|--------------------------------------------|
D|--------------------------------------------|
A|------------------2/5-5-5-5-5-5-5-5-5-------| 
E|--5-5--2-2--0-0-----------------------------|

Entra em: "Me ama, ele me..."
G|-------------------------------------------------|
D|-------------------------------------------------|
A|-----------------------2/55-55-5-----------------| (2x)
E|--55-55--22-22--00-00----------------------------|

Entra em: "Sou sua herança...Quando penso, que ele..."
G|-----------------------------------------------------------------|
D|-----------------------------------------------------------------|
A|------------2/5--------------------2/5-5-55555/17-17-17-17-17/---|
E|--5--2--0---------5--2---00000000--------------------------------|

Entra em: "Me ama, ele me..."
G|---------------------------------------------------------------|
D|---------------------------------------------------------------|
A|----------------------------------2/555-5--555-5/17-17-17------| (2x)
E|--55-5-55-5--22-2-22-2-00-0-00--0------------------------------|

Entra em: Solo de Guitarra.
G|---------------------------------------------------------------------------------|
D|---------------------------------------------------11-11-11----------------------|
A|------------------------2/5(12x)/12-12-12-11-11-11----------9(12x)-7(12x)-5(12x)-|
E|-5(12x)--2(12x)--0(12x)----------------------------------------------------------|

Entra em: "Me ama, ele me..."
G|---------------------------------------------------------------|
D|---------------------------------------------------------------|
A|----------------------------------2/555-5--555-5/17-17-17------| (2x)
E|--55-5-55-5--22-2-22-2-00-0-00--0------------------------------|

Inicio do FIM em: Quando a Ana Paula, vai ministrar...)
G|-------------------------------------|
D|-------------------------------------|
A|-------5/7-5--5/12--9---7--5~~-------| (2x)
E|--5----------------------------------|

E diga... Graças a Deus!

Comentários 1

Composição: lacey storm
Esse não é o compositor? Avise-nos.
Contribuição: Pedro
publicidade
fechar