O Cheiro das águas

Diante do Trono

 Diante do Trono
Tom: C
		
(intro)

              Am           Em
e|-8-7------------------------|
b|------8---10---10-8-10-8----|
G|--------9-------------------| (2x)
d|----------------------------|
a|----------------------------|
e|----------------------------|



             Fm               Fm/Ab
e|----------------------------|
b|-------8-6---------8-6------|
g|-5-7------5-------------5-7-|
d|----------------------------|
a|----------------------------|
e|----------------------------|


C             
Há esperança para o ferido
     Am7             F4+      F
Como árvore cortado, marcado pela dor
 Dm                     Em
Ainda que na terra envelheça a raiz
      F
E no chão, abandonado,
      G4       G     ( F9   Fm/Ab )
O seu tronco morrer

(repete tudo)

Fm7/C              C
Há esperança pra você

   C/E        F      G    Am
Ao cheiro das águas brotará
C/E         F     G/F     Em7
Como planta nova florescerá
     Am9      G     F9
Seus ramos se renovarão
C
Não cessarão

(intro)  Fm/C     G#º

(refrão) F/C    G   C

( F/C      G   C    G/B )

    os seus frutos e viverá

(ministração)

(intro)

( Am9  Am/F#  G  G )
"águas purificadoras"
118.121 exibições

Comentários 3

  • Rafael Rafael: Postado em 20/04/2013 16:42

    as musicas mais bonitas sao as mais facil na minha opinião

  • abner.lc abner.lc: Postado em 25/10/2012 14:31

    muito boa

  • bobfilha bobfilha: Postado em 18/09/2011 14:37

    facinho...

Composição: Ana Paula Valadão Bessa
Esse não é o compositor? Avise-nos.
Contribuição: meira.john Correções: Pedrão e mais 1 »
Exibir acordes »
publicidade
fechar