Moderato In C

Dionisio Aguado

Sem foto do Dionisio Aguado
Tom: C
		
      C                                                 G7
1    |           |            |           |            |           |
E|--------0-----------0---|--------0-----------0---|--------1-----------1---|
B|-----1-----1-----1-----1|-----1-----1-----1-----1|-----0-----0-----0------|
G|--0-----------0---------|--0-----------0---------|--0-----------0--------0|
D|--------------------2---|--------------------2---|--0-----------------3---|
A|--3---------------------|--3---------------------|------------------------|
E|--------------3---------|--------------3---------|--------------3---------|

                               C
4    |           |            |           |            |           |
E|--------1-----------1---|--------0-----------0---|--------0-----------0---|
B|-----0-----0-----0-----0|-----1-----1-----1-----1|-----1-----1-----1-----1|
G|--0-----------0---------|--0-----------0---------|--0-----------0---------|
D|--0-----------------3---|--------------------2---|--------------------2---|
A|------------------------|--3---------------------|--3---------------------|
E|--------------3---------|--------------3---------|--------------3---------|

      E7                                                Am
7    |           |            |           |            |           |
E|--------0-----------0---|--------0-----------0---|--------0-----------0---|
B|-----3-----3-----3-----3|-----3-----3-----3-----3|-----1-----1-----1-----1|
G|--1-----------1---------|--1-----------1---------|--2-----------2---------|
D|--------------------0---|--------------------2---|------------------------|
A|--2---------------------|--2---------------------|--0-----------------3---|
E|--------------0---------|--------------0---------|--------------0---------|

                               D7
10   |           |            |           |            |           |
E|--------0-----------0---|--------2-----------2---|--------2-----------2---|
B|-----1-----0-----1-----1|-----1-----1-----1-----1|-----1-----1-----1-----1|
G|--2-----------2---------|--2-----------2---------|--2-----------2---------|
D|------------------------|--------------------0---|--------------------0---|
A|--0-----------------3---|--0---------------------|--0---------------------|
E|--------------0---------|--------------2---------|--------------2---------|

      G                                                 C
13   |           |            |           |            |           |
E|--------3-----------3---|--------3-----------3---|--------0-----------0---|
B|-----0-----0-----0-----0|-----0-----0-----0-----0|-----1-----1-----1-----1|
G|--0-----------0---------|--0-----------0---------|--0-----------0---------|
D|--------------------0---|--------------------0---|--------------2-----2---|
A|--2---------------------|--2---------------------|--3---------------------|
E|--------------3---------|--------------3---------|------------------------|

      Am                       Dm7                      G7
16   |           |            |           |            |           |
E|--------0-----------0---|--------1-----------1---|--------1-----------1---|
B|-----1-----1-----1-----1|-----3-----3-----3-----3|-----3-----3-----3-----3|
G|--2-----------2---------|--2-----------2---------|--0-----------0---------|
D|------------------------|--------------0---------|------------------------|
A|--0-----------3-----0---|--------------------3---|--2-----------0-----2---|
E|------------------------|--1---------------------|------------------------|

      C                        Am                       Dm7
19   |           |            |           |            |           |
E|--------0-----------0---|--------0-----------0---|--------1-----------1---|
B|-----1-----1-----1-----1|-----1-----1-----1-----1|-----3-----3-----3-----3|
G|--0-----------0---------|--2-----------2---------|--2-----------2---------|
D|--------------2-----2---|------------------------|--------------0---------|
A|--3---------------------|--0-----------3-----0---|--------------------3---|
E|------------------------|------------------------|--1---------------------|

      G7                       C           G7           C           G7
22   |           |            |           |            |           |
E|--------1-----------1---|--------0-----------1---|--------0-----------1---|
B|-----3-----3-----3-----3|-----1-----1-----3-----3|-----1-----1-----3-----3|
G|--0-----------0---------|--0-----------0---------|--0-----------0---------|
D|------------------------|--------2---------------|--------2---------------|
A|--2-----------0-----2---|--3-----------------2---|--3-----------------2---|
E|------------------------|--------------3---------|--------------3---------|

      C
25   |           |            |           |              |           |
E|--------0-----------0---|--------0-----------0---|-----------------------||
B|-----1-----1-----1-----1|-----1-----1-----1-----1|----1-----1-----1------||
G|--0-----------0---------|--0-----------0---------|-----------------------||
D|--------------------2---|--------------------2---|----2-----2-----2------||
A|--3---------------------|--3---------------------|----3-----3-----3------||
E|--------------3---------|--------------3---------|-----------------------||
161 exibições

Comentários 0

Consegui tocarAinda não conseguiram tocar essa música. Seja o primeiro!
    Não consegui tocar
    Exibir acordes »
    publicidade
    fechar