Tom: C
		
Intro: C F C F

C             F       C     F
 Não me diga nada, eu sabia
C               F       G
 Que o nosso romance acabaria
C              F   C                  F 
 Não me diga nada,  não quero mais palavras
C               F           G      Am G/B C
 Já cansei de ouvir suas mentiras
C                F        C        F
 Já não há mais nada, pra se dizer
C            F           G
 Seu amor é tudo que eu queria
C             F    C                    F
 Não me diga nada,  quem está sofrendo aqui sou eu
C               F             G
 Quero ter de volta as nossas vidas

Refrão
 C                            E7
Jura me diz que tudo isso é loucura
                              F
Que nosso amor não está se acabando
      Dm                G
Que ainda eu posso ser seu
 C			       E7
Jura me diz que tudo isso é loucura
		       F
Que ainda continua me amando
      Dm        	G
Que o seu coração é só meu

Inter
C			  G
 Não vá buscar um outro olhar
			  F
Um novo amor pra se entregar
	  Dm              Am             E7         
Só de pensar que existe alguém eu morro de ciúmes
C                     G
 Você é tudo que eu sonhei
			  F   Dm
E amar assim como eu te amei
   G
Ninguém vai te amar


Solo: C G F Dm Am G C F C 
 

E|-----------------------------------------------------8--------8-8-8----------
B|-------------8-8-----------------------8-10-8---8-10--10-----------10-8-10---
G|-----5-7-7/9-----------5-7-7/9-5-7-5-7---------------------7/9---------------
D|-5/7---------------5/7-------------------------------------------------------
A|-----------------------------------------------------------------------------
E|-----------------------------------------------------------------------------



e|-8-8-8---------------------------------------------------------| 
B|------10-8-10-----------------------6-8------------------------| 
G|-------------------5-7-7/9-9----7-9----7b-5-5------5---5-------| 
D|----------------5/7------------------------7------7---5--------| 
A|-------------------------------------------------8---7---5--3--| 
E|---------------------------------------------------------------| 


C                F        C        F
 Já não há mais nada, pra se dizer
C            F           G     Am G/B C
 Seu amor é tudo que eu queria
C             F    C                    F
 NANANANANANANANA,  NANANANANANANANANANANANANANANA
C               F             G
 Quero ter de volta as nossas vidas

Refrão 2x
 C                            E7
Jura me diz que tudo isso é loucura         
                              F
Que nosso amor não está se acabando
      Dm                G
Que ainda eu posso ser seu
 C			      Em7
Jura me diz que tudo isso é loucura
		       F
Que ainda continua me amando
	Dm		G
Que o seu coração é só meu            

final: C F Em Dm C-
147.234 exibições

Comentários 0

Exibir acordes »
publicidade
fechar