Eu vou abrir o meu coração

Fernandinho

 Fernandinho
Tom: C
		
Intro: C  G/B  Am7  F9  C  G/B  F9

   C           G/B      Am7  F
Eu vou abrir o meu coração
   C              G/B     Am7  1ª G 2ª Am/G
Eu vou deixar meu noivo entrar  (2x)

      Am
Vou ceiar com Ele
   G
Ao seu amor
F    G      C
Vou me entregar


E|-------------------------------------------------------------|
B|-------------------------------------------------------------|
G|-9-10--10b-/--14b-\--12-\---7--7--5-------7--5-5-5--7/----12-|
D|-------------------------------------------------------------|
A|-------------------------------------------------------------|
E|-------------------------------------------------------------|


C9              G
Entrei no meu jardim
                 Am7
Colhi os meus perfumes
  Am/G    F9           C
Para te dar ó noiva minha
C9              G
Entrei no meu jardim
                 Am7
Colhi os meus perfumes
Am/G       F9        C
Para te dar ó noiva minha

   G                   Am
Os teus perfumes são suaves
   G         F           C
O teu amor melhor do que o vinho
   G                   Am7
Os teus perfumes são suaves
  G          F            C                        G
O teu amor melhor do que o vinho (... melhor do que o vinho...)UOU

   C            G        Am   F
Eu vou abrir o meu coração
   C             G        Am   F
Eu vou deixar meu noivo entrar  (2x)

      Am
Vou ceiar com Ele
   G
Ao seu amor
 F    G      C
Vou me entregar

C9              G
Entrei no meu jardim
                 Am7
Colhi os meus perfumes
  Am/G    F9           C
Para te dar ó noiva minha
C9              G
Entrei no meu jardim
                 Am7
Colhi os meus perfumes
Am/G       F9        C
Para te dar ó noiva minha

   G                   Am
Os teus perfumes são suaves
   G         F           C
O teu amor melhor do que o vinho
   G                   Am7
Os teus perfumes são suaves
  G          F            C                        G
O teu amor melhor do que o vinho (... melhor do que o vinho...)UOU

   C            G        Am   F
Eu vou abrir o meu coração
   C             G        Am   F
Eu vou deixar meu noivo entrar  (2x)

      Am
Vou ceiar com Ele
   G
Ao seu amor
 F    G      C
Vou me entregar

Solo:

Base: Eb9 F G9 G4 G | Eb9 F9 G9 G4 G


E|-13--13--10-10-------------------------------------------------------------------------------|
B|---------------10-13-13b-13b-10-13------------------------------------------8---10--12--13-15|
G|------------------------------------12b--10--12--10-12-14-10-12---12----12-------------------|
D|---------------------------------------------------------------------------------------------|
A|---------------------------------------------------------------------------------------------|
E|---------------------------------------------------------------------------------------------|


    T            T           T            T

E|-10--6-8-(4x)--13-6--8(4x)-13-8--10(4x)-15-8-10(4x)-|--15--15--15--15-|-10 10 9-----|
B|----------------------------------------------------|-----------------|---------10--|
G|----------------------------------------------------|-----------------|------------9|
D|----------------------------------------------------|-----------------|-------------|
A|----------------------------------------------------|-----------------|-------------|
E|----------------------------------------------------|-----------------|-------------|


E|-10 10-9--------10-10-9---------10-10-9----------|

B|----------10-------------10-------------10----10-|
G|-------------9--------------9--------------9-----|
D|-------------------------------------------------|
A|-------------------------------------------------|
E|-------------------------------------------------|


     D(parada)            Bm7  G G G
Eu vou abrir o meu coração
   D              A     Bm7  A  ( Bm7/A )
Eu vou deixar meu noivo entrar  (2x)

      Bm
Vou ceiar com Ele
   A
Ao seu amor
G    A      D
Vou me entregar
Texto Colunas
Alterar tom ½ tom ½ tom
afinação acordes na letra esconder tabs mais »

Comentários 4

  • atalaias atalaias: Postado em 26/07/2013 19:34

    cifra errada

  • mc_ts mc_ts: Postado em 03/12/2012 16:47

    linda!!!

    • thibr20 thibr20: Postado em 21/09/2013 13:57

      E ai galera,estarei enviando a Tab do solo da guitarra tudo certinho OK?

  • jtsforever jtsforever: Postado em 16/12/2011 12:08

    essa é uma das melhores musicas,que o fernandinho fez

Composição: Sabe quem é o compositor? Envie pra gente. Contribuição: FakiiN Correções: thibr20 , tikitodanford e mais 7 »
  1. Domingo de Manhã - Marcos e Belutti Manteve-se 102.105 exibições
  2. Logo Eu - Jorge e Mateus Manteve-se 47.110 exibições
  3. Não Vai Voltar - Onze:20 Manteve-se 43.626 exibições
  4. Maus Bocados - Cristiano Araújo Manteve-se 41.276 exibições
  5. Pra Você - Onze:20 Manteve-se 40.811 exibições
  6. Recaídas - Henrique e Juliano Manteve-se 40.053 exibições
  7. Só Os Loucos Sabem - Charlie Brown Jr. Manteve-se 32.225 exibições
  8. Aonde Quer Que Eu Vá - Os Paralamas do Sucesso Manteve-se 32.124 exibições
  9. É Preciso Saber Viver - Titãs Manteve-se 30.368 exibições
  10. Pais e Filhos - Legião Urbana Manteve-se 30.068 exibições
  1. Jorge e Mateus- Manteve-se 292.826 exibições
  2. Legião Urbana- Manteve-se 218.900 exibições
  3. Charlie Brown Jr.- Manteve-se 152.408 exibições
  4. Marcos e Belutti- Manteve-se 125.986 exibições
  5. Fernandinho- Manteve-se 124.613 exibições
  6. Henrique e Juliano- Manteve-se 117.899 exibições
  7. Bruno e Marrone- Manteve-se 108.690 exibições
  8. Onze:20- Manteve-se 108.022 exibições
  9. Luan Santana- Manteve-se 94.838 exibições
  10. Thalles Roberto- Manteve-se 93.559 exibições
Exibir acordes »

Cifras e tabs

Fórum Cifra Club

Aprenda

Cifra Club News

Mais Serviços Cifra Club ID

Studio Sol

©1996 - 2014 Cifra Club · o primeiro, maior e mais acessado do Brasil · 336 mil músicas · 6.2 milhões pessoas cadastradas

publicidade
fechar