Refrigério

Gerson Cardozo

 Gerson Cardozo
Tom: C
		
Intro: F#


E|--------------------------------------------------------------------
B|--------------------------------------------------------------------
G|--------------------------------------------------------------------
D|------6-----------------------------6-------------------------------
A|--------7-----------------------------7--------------12--14---------
E|-----------9--7--5--7-5h7p5--4--5--------9-10--12-12-------12-14~---



           F#            Bm
Vem me refrigera em tuas águas
     C#
Vem cuidar de mim
           D               E
Deixa eu habitar em tuas tendas 
   F#m
Espírito
              F#           Bm
Todos os meus dias em tua casa 
        C#
Eu me alegrarei
                 D        E
Eu quero ser um vaso precioso
        F#m
Pro meu rei

F#       E       D               E
Recebe,  toda adoração ,todo louvor
      C#4   C#
Ó Rei dos reis
D     F#m  E         D              E
Recebe,   sacrifício vivo em teu altar
     C#4  C#
Entregarei

   D                     E
Esconde-me em teu tabernáculo
   F#m
Defende-me do inimigo
   D                           E
Esconde-me em tuas asas perfumadas
     D E
De amor
  D                E
Desça sobre mim o óleo,
  
  F#m
O azeite da Santa Unção
    Bm                     E                D
Restaura a mente ,corpo ,alma e o meu coração


E|--------------------------------------------------------------------
B|--------------------------------------------------------------------
G|--------------------------------------------------------------------
D|-----6--7-----------------------------------------------------------
A|-----------6h7--7---------------------------------------------------
E|--------------------------------------------------------------------



Solo: Dm  F  Em  Dm   F  G

(Repete Tudo)

(Refrão 2x)

    F                   G               Am
Restaura a mente ,corpo,alma e o meu coração
Texto Colunas
Alterar tom ½ tom ½ tom
afinação acordes na letra esconder tabs mais »

Comentários 0

  1. Até Você Voltar - Henrique e Juliano Manteve-se 88.408 exibições
  2. Domingo de Manhã - Marcos e Belutti Manteve-se 77.301 exibições
  3. Cuida Bem Dela - Henrique e Juliano Manteve-se 51.654 exibições
  4. Diz Pra Mim - Banda Malta Manteve-se 42.052 exibições
  5. Recaídas - Henrique e Juliano Manteve-se 41.950 exibições
  6. Raridade - Anderson Freire Manteve-se 41.036 exibições
  7. Pra Você - Onze:20 Manteve-se 31.026 exibições
  8. Só Os Loucos Sabem - Charlie Brown Jr. Manteve-se 30.669 exibições
  9. Tudo Que Você Quiser - Luan Santana Manteve-se 29.599 exibições
  10. Cê Que Sabe - Cristiano Araújo Manteve-se 28.626 exibições
  1. Henrique e Juliano- Manteve-se 273.645 exibições
  2. Jorge e Mateus- Manteve-se 220.738 exibições
  3. Legião Urbana- Manteve-se 202.993 exibições
  4. Charlie Brown Jr.- Manteve-se 146.309 exibições
  5. Luan Santana- Manteve-se 118.679 exibições
  6. Fernandinho- Manteve-se 117.963 exibições
  7. Bruno e Marrone- Manteve-se 113.169 exibições
  8. Marcos e Belutti- Manteve-se 95.202 exibições
  9. Thalles Roberto- Manteve-se 91.729 exibições
  10. The Beatles- Manteve-se 89.066 exibições
Exibir acordes »

Cifras e tabs

Fórum Cifra Club

Aprenda

Cifra Club News

Mais Serviços Cifra Club ID

Studio Sol

©1996 - 2014 Cifra Club · o primeiro, maior e mais acessado do Brasil · 341 mil músicas · 6.3 milhões pessoas cadastradas

publicidade
fechar