Acredita

Novo Som

 Novo Som
Tom: D
		
 D               A9        Bm            G
Hei, não fique assim, solidão não vai trazer
      D            A
A solução pro seu sofrer

 D           A9         Bm               G
Não, não há razão pra viver tão triste assim
         D                  G        D/F#
Existe alguém que sofreu no seu lugar
     Em           A9
Acredita, Ele é a vida

 D             A9         Bm          G
Não, não estou aqui pra fazer a sua cabeça
          D                G        D/F#
Mas pra dizer que nem tudo se perdeu
    Em                F#
Acredita, existe um Deus

     B      E     F#
Ele vai lhe estender a mão
        C#m7                F#
Lhe abraçar e acalmar o seu coração
     B      E     F#
Ele vai lhe levantar do chão
    C#m7                  F#
Estará para sempre ao seu lado
       D#m7  G#m        Em
A|- credi - ta nesse amor maior...
         B         F#      E      B
Que sofreu até morrer pra lhe salvar


E|--------------12-12-10-9-10-10/12-12-12/14-14~---------------------------|
B|-10~-12~-10~-----------------------------------10-12---------------------|
G|-----------------------------------------------------11-12~-14-14/16-14~-|
D|-------------------------------------------------------------------------|
A|-------------------------------------------------------------------------|
E|-------------------------------------------------------------------------|



E|-------------------------------------------------------------------------|
B|--------------------------------7-8-7-----7/8-7---7p9p7------------------|
G|-11-11-11-11-9-9p11-11p9p7~-7-9-------7-7-------7-------9-9/11-----------|
D|-------------------------------------------------------------------------|
A|-------------------------------------------------------------------------|
E|-------------------------------------------------------------------------|
Texto Colunas
Alterar tom ½ tom ½ tom
afinação acordes na letra esconder tabs mais »
68.798 exibições

Comentários (4)

  • jeanne.sousa.5070 jeanne.sousa.5070: Postado em 24/12/2013 12:43

    queria uma video aula no violao dessa musica pra pega o solo diretinho

  • suel suel: Postado em 18/02/2013 18:04

    nao sei a base do solo no teclado que notas sao

  • kalebe_s10 kalebe_s10: Postado em 09/07/2012 18:23

    Banda Sem Limites Pvh dê uma olhada aqui no Cifra Club!!! Abraços

  • chgdf chgdf: Postado em 26/12/2011 13:44

    Amo essa música,amo essa banda abençoada Novo Som...

Composição: Lenilton
Esse não é o compositor? Avise-nos.
Contribuição: jeff bad boy Correções: natangtt , Romario e mais 7 »
  1. Tudo Que Você Quiser - Luan Santana Manteve-se 5.838 exibições
  2. Lepo Lepo - Psirico Manteve-se 4.258 exibições
  3. Mozão - Lucas Lucco Manteve-se 4.092 exibições
  4. Logo Eu - Jorge e Mateus Manteve-se 3.677 exibições
  5. Gaveta - Fernando e Sorocaba Manteve-se 3.251 exibições
  6. Só Os Loucos Sabem - Charlie Brown Jr. Manteve-se 2.945 exibições
  7. Pra Você - Onze:20 Manteve-se 2.783 exibições
  8. Tempo Perdido - Legião Urbana Manteve-se 2.356 exibições
  9. Fui Fiel - Gusttavo Lima Manteve-se 2.236 exibições
  10. Na Linha do Tempo - Victor e Leo Manteve-se 2.111 exibições
  1. Jorge e Mateus- Manteve-se 22.167 exibições
  2. Legião Urbana- Manteve-se 19.327 exibições
  3. Luan Santana- Manteve-se 17.248 exibições
  4. Charlie Brown Jr.- Manteve-se 16.750 exibições
  5. Fernandinho- Manteve-se 14.218 exibições
  6. Thalles Roberto- Manteve-se 10.904 exibições
  7. Católicas- Manteve-se 10.314 exibições
  8. Aline Barros- Manteve-se 10.062 exibições
  9. Victor e Leo- Manteve-se 10.039 exibições
  10. Gusttavo Lima- Manteve-se 9.893 exibições
Exibir acordes »

Cifras e tabs

Fórum Cifra Club

Aprenda

Cifra Club News

Mais Serviços Cifra Club ID

Studio Sol

©1996 - 2014 Cifra Club · o primeiro, maior e mais acessado do Brasil · 329 mil músicas · 5.9 milhões pessoas cadastradas

publicidade
fechar