Oficina G3

Espelhos Magicos

390.075 exibições
Tom: D
Intro :


E|--------------------------------------------------------------|
B|-----2-3---2-------2-------0----------------------------------|
G|---4-----------4-------2-------2---------------2-0------------|
D|-4-------4---4---4---2---2---2---4---4---4---4-------0---0---0|
A|-------2-----------0---------------4---4---4-------2---2---2--|
E|---------------------------------2---------------3------------|


E|---0-------2---3---0-------------------------------------------|
B|---0---0-------------------3-2-----3-2-----3-2-----3-2---------|
G|---0-0---0---0---0-----2-------2-------2-------2-------2-------|
D|---------------------2---2-------4-------4-------4-------4-----|
A|-------------------0-------2-----------------------------------|
E|---0-----------------------------------------------------------|


E|--10---9---7---12--------10----9-5---------3-3-3---0----------|
B|--7-----------------10------10---2---2---2---3---3-0---0------|
G|--7--7---7---7----9----9---------2-2---2-----4-----0-0---0----|
D|--------------------------------------------------------------|
A|---------------0----------------------------------------------|
E|--7------------------------------2-----------3-----0----------|


E|--2---3---0---------------------------------------------------|
B|------------------2---3-2-----3-2-----3-2-----3-2-------------|
G|----0---0-----2-----------2-------2-------3-------3-----------|
D|------------2---2---2-------4-------4-------4-------4---------|
A|----------0-----------2---------------------------------------|
E|--------------------------------------------------------------|


Bm         A            G        Bm      G   A
Os homens e seus espelhos mágicos.
Bm      A     G       Bm      G    A   (G F#m Em)
Nada vêem além de si mesmos.
Em              F#m             G             A   ( G F#m Em )
Se esqueceram daquele que um dia esteve entre nós.
Em      F#m        G         A           Bm
E que veio cumprir, segundo já estava escrito.

Refrão:

   G      A       F#m      G  ( G F#m Em )         A           Bm
Nasceu, sofreu, morreu por nós, seu sangue lá na cruz derramou
  G       A
Nasceu, sofreu

 Bm           A      G        Bm     G  A
 Os homens e seus espelhos mágicos.
 Bm           A       G       Bm    G   A   ( G F#m Em )
 Só vêem um Cristo vencido em dor.
 Em               F#m         G              A
 Não conhecem a cruz vazia, pois ressuscitou.
 Em       F#m             G             A   Bm
 E nem o toque de vida, do Filho do Amor

Refrão 2x:

   G      A       F#m      G  ( G F#m Em )         A           Bm
Nasceu, sofreu, morreu por nós, seu sangue lá na cruz derramou

   G              A/G                 F#
Na cruz lutou, na cruz venceu e Sua vida nos deu
            Bm     A         G       A
Pra que a vida estivesse em nós.

Solo:


E|---------9-12-10-9----9-------9----------|--------------------------|
B|------10-----------12---10-12---12-10----|--------------12--14--15--|
G|----9---------------------------------11-|--12----------------------|
D|-----------------------------------------|--------------------------|
A|-----------------------------------------|--------------------------|
E|-----------------------------------------|--------------------------|


E|----------5---------------|------------------14--14/17-14----13/12-10-|
B|--14--12------------------|------------14-12--------------------------|
G|----------14--14~---------|--11--12-11--------------------------------|
D|--------------------------|-------------------------------------------|
A|--------------------------|-------------------------------------------|
E|--------------------------|-------------------------------------------|


E|--12--10--14--14/-14--------|--14-10-12-10----10-------10------------------9-|
B|----------------------------|--------------12-------10----10-----------------|
G|----------------------------|--------------------12----------12-11-9-11-12---|
D|----------------------------|------------------------------------------------|
A|----------------------------|------------------------------------------------|
E|----------------------------|------------------------------------------------|


E|--10-12-10-9-------9-------------------------|
B|---------------------------------------------|
G|-------------12-11---12-11-9----9-11--9------|
D|-----------------------------12----------12--|
A|---------------------------------------------|
E|---------------------------------------------|


E|-------------------------------------|
B|-------------------------------------|
G|----------------11-9----9------------|
D|--11------11-12------11---12-9-12-11-|
A|-------------------------------------|
E|-------------------------------------|


E|---------------------------------------------|--------------------|
B|---------------------------------------------|--------------------|
G|---------------------------------------------|--------------------|
D|-----11-9----9---------9--11--12--11--9------|--9-----------------|
A|--12------10---12-9-12-------------------12--|--10----------------|
E|---------------------------------------------|--------------------|


E|----------------------------------------5--|----------------9-------|
B|----------------------------------------10-|--12/-------12--10------|
G|--------------------------------9-11-12----|------------------------|
D|------------------------9-11-12------------|------------------------|
A|----------10----9-10-12--------------------|------------------------|
E|-------------12----------------------------|------------------------|


E|--5---------0----7--9--|--10----9----14~-------|
B|--7------5--5----------|-----------------------|
G|-----------------------|-----------------------|
D|-----------------------|-----------------------|
A|-----------------------|-----------------------|
E|-----------------------|-----------------------|


E|--14-12-10-12-10-9-10-9----------9-10-9-------|--------------------|
B|------------------------12-10-12--------12-10-|--12----------------|
G|----------------------------------------------|--------------------|
D|----------------------------------------------|--------------------|
A|----------------------------------------------|--------------------|
E|----------------------------------------------|--------------------|
    Composição: Juninho AframColaboração e revisão:
    • peu.mota
    • Leonardo.MateusR00
    • Matheus
    • Tiago
    • +6

    Comentários 53

    140 .
    • Samuell Samuell: Em 24/03/2015 10:53

      A música é linda,porém a primeira parte está errada. Aonde estar o Em deveria estar Bm e seus encadeamentos.

    • Renan.F.Andrade01 Renan.F.Andrade01: Em 17/08/2014 10:54

      Bem, eu nunca tinha ouvido esse ritmo

    • maxsuel.140 maxsuel.140: Em 29/07/2014 13:16

      muito facil essas cifras

    • Filipe Filipe: Em 03/06/2014 17:48

      video aula pf

      • Fenanda Fenanda: Em 18/01/2015 16:08

        em eum site chamado cifras tem a video aula com solo tambem.

    • matheus matheus: Em 29/05/2014 22:43

      qual é a batida
      sou iniciante!!!

    • neto.deassis neto.deassis: Em 27/02/2014 09:57

      show agora vou tocar

    • guitarristapablo guitarristapablo: Em 22/01/2014 21:41

      muito boa

    • matheus.marcolinolamberti matheus.marcolinolamberti: Em 07/01/2014 18:35

      o solo e dificil,mas a musica é facil e fica muito boa e bonita no violao

    • pablo pablo: Em 28/11/2013 08:59

      muito boa

    Exibindo 10 de 53 comentários Mostrar mais ver todos »
    140 cancelar
    0:00 / 0:00

    Capítulos

      1 versão de baixo exibições contribuição e correção
      2 versões de Guitar Proformatodownloadscontribuição
      3 versões de partiturasformatodownloadscontribuição
      play/pausefechar subir/descer velocidade
      6ª corda E5ª corda A4ª corda D3ª corda G2ª corda B1ª corda E
        acordes
        publicidad
        fechar
        ok