Espelhos Magicos

Oficina G3

 Oficina G3 Compositor: Juninho Afram
Tom: D
		
Intro 2x: Bm A F#m G Em A Bm

Bm          A    G       Bm      G   A
Os homens e seus espelhos mágicos.
Bm     A    G          Bm      G  A   ( G F#m Em )
Nada vêem além de si mesmos.
Em              F#m             G             A   ( G F#m Em )
Se esqueceram daquele que um dia esteve entre nós.
Em      F#m        G         A           Bm
E que veio cumprir, segundo já estava escrito.

Refrão:
   G      A       F#m      G  ( G F#m Em )         A           Bm
Nasceu, sofreu, morreu por nós, seu sangue lá na cruz derramou
  G       A
Nasceu, sofreu

 Bm           A      G        Bm     G  A
 Os homens e seus espelhos mágicos.
 Bm           A       G       Bm    G   A   ( G F#m Em )
 Só vêem um Cristo vencido em dor.
 Em               F#m         G              A
 Não conhecem a cruz vazia, pois ressuscitou.
 Em       F#m             G             A   Bm
 E nem o toque de vida, do Filho do Amor

Refrão 2x:
   G      A       F#m      G  ( G F#m Em )         A           Bm
Nasceu, sofreu, morreu por nós, seu sangue lá na cruz derramou

   G              A/G                 F#
Na cruz lutou, na cruz venceu e Sua vida nos deu
            Bm     A         G       A
Pra que a vida estivesse em nós.
Solo:

E|---------9-12-10-9----9-------9----------|--------------------------|
B|------10-----------12---10-12---12-10----|--------------12--14--15--|
G|----9---------------------------------11-|--12----------------------|
D|-----------------------------------------|--------------------------|
A|-----------------------------------------|--------------------------|
E|-----------------------------------------|--------------------------|



E|----------5---------------|------------------14--14/17-14----13/12-10-|
B|--14--12------------------|------------14-12--------------------------|
G|----------14--14~---------|--11--12-11--------------------------------|
D|--------------------------|-------------------------------------------|
A|--------------------------|-------------------------------------------|
E|--------------------------|-------------------------------------------|



E|--12--10--14--14/-14--------|--14-10-12-10----10-------10------------------9-|
B|----------------------------|--------------12-------10----10-----------------|
G|----------------------------|--------------------12----------12-11-9-11-12---|
D|----------------------------|------------------------------------------------|
A|----------------------------|------------------------------------------------|
E|----------------------------|------------------------------------------------|



E|--10-12-10-9-------9-------------------------|
B|---------------------------------------------|
G|-------------12-11---12-11-9----9-11--9------|
D|-----------------------------12----------12--|
A|---------------------------------------------|
E|---------------------------------------------|



E|-------------------------------------|
B|-------------------------------------|
G|----------------11-9----9------------|
D|--11------11-12------11---12-9-12-11-|
A|-------------------------------------|
E|-------------------------------------|



E|---------------------------------------------|--------------------|
B|---------------------------------------------|--------------------|
G|---------------------------------------------|--------------------|
D|-----11-9----9---------9--11--12--11--9------|--9-----------------|
A|--12------10---12-9-12-------------------12--|--10----------------|
E|---------------------------------------------|--------------------|



E|----------------------------------------5--|----------------9-------|
B|----------------------------------------10-|--12/-------12--10------|
G|--------------------------------9-11-12----|------------------------|
D|------------------------9-11-12------------|------------------------|
A|----------10----9-10-12--------------------|------------------------|
E|-------------12----------------------------|------------------------|



E|--5---------0----7--9--|--10----9----14~-------|
B|--7------5--5----------|-----------------------|
G|-----------------------|-----------------------|
D|-----------------------|-----------------------|
A|-----------------------|-----------------------|
E|-----------------------|-----------------------|



E|--14-12-10-12-10-9-10-9----------9-10-9-------|--------------------|
B|------------------------12-10-12--------12-10-|--12----------------|
G|----------------------------------------------|--------------------|
D|----------------------------------------------|--------------------|
A|----------------------------------------------|--------------------|
E|----------------------------------------------|--------------------|
Texto Colunas
Alterar tom ½ tom ½ tom
afinação acordes na letra esconder tabs mais »

Comentários (45)

Exibindo 10 de 45 comentários Mostrar mais ver todos »
Composição: Sabe quem é o compositor? Envie pra gente. Contribuição: dennercarvalho Correções: Matheus , joabe.eulan e mais 4 »
  1. Tudo Que Você Quiser - Luan Santana Manteve-se 6.028 exibições
  2. Lepo Lepo - Psirico Manteve-se 4.297 exibições
  3. Pra Você - Onze:20 Manteve-se 4.147 exibições
  4. Mozão - Lucas Lucco Manteve-se 4.130 exibições
  5. Logo Eu - Jorge e Mateus Manteve-se 3.983 exibições
  6. Gaveta - Fernando e Sorocaba Manteve-se 3.779 exibições
  7. Só Os Loucos Sabem - Charlie Brown Jr. Manteve-se 3.131 exibições
  8. Tempo Perdido - Legião Urbana Manteve-se 2.706 exibições
  9. Fui Fiel - Gusttavo Lima Manteve-se 2.673 exibições
  10. Domingo de Manha - Marcos e Belutti Manteve-se 2.465 exibições
  1. Jorge e Mateus- Manteve-se 23.782 exibições
  2. Legião Urbana- Manteve-se 21.512 exibições
  3. Charlie Brown Jr.- Manteve-se 17.212 exibições
  4. Luan Santana- Manteve-se 17.149 exibições
  5. Fernandinho- Manteve-se 15.105 exibições
  6. Thalles Roberto- Manteve-se 11.065 exibições
  7. Católicas- Manteve-se 10.946 exibições
  8. Gusttavo Lima- Manteve-se 10.939 exibições
  9. Victor e Leo- Manteve-se 10.661 exibições
  10. Bruno e Marrone- Manteve-se 10.324 exibições
Exibir acordes »

Cifras e tabs

Fórum Cifra Club

Aprenda

Cifra Club News

Mais Serviços Cifra Club ID

Studio Sol

©1996 - 2014 Cifra Club · o primeiro, maior e mais acessado do Brasil · 329 mil músicas · 6.0 milhões pessoas cadastradas

publicidade
fechar