Continuar

Oficina G3

 Oficina G3
Tom: A#
		
Intro 4x:

E|-------------------------------------------------------------------------------|
B|-----------1-------------------1--------------------1--------------------------|
G|------4-------4---------4---------4----------2---------2----------2------2-----|
D|--------2-----------------2--------2-----------2-----------------2------2------|
A|----0--------------------------------------------------------------------------|
E|----------------------3-------------------3--------------------1------3--------|


Am9                   Am9/G
Abro os meus olhos já é de manhã
G4                G/F    G
À noite e menor cada dia
Am9                Am9/G
Os dias às vezes parecem iguais
G4                  G/F    G
A guerra é minha rotina

Cm        Gm
Peço força
 G#        D#/C
Pra continuar
Cm       Gm
Peço força
 G#           Bb       Am9   G   F
Prá poder lutar

          F      G
Luto pra sobreviver
       Am                 G
Com os olhos voltados pro céu
             F     G
Espinhos me fazem sofrer
  Am                 G                    D
Resisto na luta com a graça de quem já venceu

E|-------------------------------------------------------------------------------|
B|-----------1-------------------1--------------------1--------------------------|
G|------4-------4---------4---------4----------2---------2----------2------2-----|
D|--------2-----------------2--------2-----------2-----------------2------2------|
A|----0--------------------------------------------------------------------------|
E|----------------------3-------------------3--------------------1------3--------|


Am9                    Am9/G
Fecho os meus olhos a noite já cai
G4                G/F      G
Começo a tratar minhas feridas
Am9                    Am9/G
Olho pros céus com os joelhos no chão
       G4              G/F     G
Abro os braços pra graça divina

Cm       Gm
Peço força
 G#          D#/C
Pra continuar
Cm       Gm
Peço força
 G#5         Bb5
Prá poder lutar

          F      G
Luto pra sobreviver
       Am                 G
Com os olhos voltados pro céu
             F       G
Espinhos me fazem sofrer
  Am                 G                    D
Resisto na luta com a graça de quem já venceu...

G#           D#/C            D#
Nada vai nos separar do teu grande amor
Fm         G#                 D#            Dm7
Mesmo caminhando em dor, sou mais que vencedor

Teclado: F  Dm  F  Dm


 Solo 2x: Cm7  Gm  G#  Bb
E|-15-14-12--------------------12-11-9------------------|
B|---------17-15-14-15-14-13-12-------12-11-10-9--------|
G|----------------------------------------------12-11-9-|
D|------------------------------------------------------|
A|------------------------------------------------------|
E|------------------------------------------------------|



E|---------------14^11h12-11---------------------------------|
B|-14^14^11^13^11-----------11-------------------------------|
G|----------------------------13-12h13-12-10h12-10-8-7h8-7---|
D|--------------------------------------------------------10-|
A|-----------------------------------------------------------|
E|-----------------------------------------------------------|



E|-------11-15-11------18^18----15-16-18-16-15----------|
B|-----13--------13---------19^---------------18-16-15--|
G|---12------------12---------------------------------17|
D|-10---------------------------------------------------|
A|------------------------------------------------------|
E|------------------------------------------------------|



E|-18-16-15------------18-16-15-----------------------------|
B|---------18-16-15------------18-16-15-13------------------|
G|-----------------17---------------------15-14-12----------|
D|------------------------------------------------15-13-12--|
A|--------------------------------------------------------15|
E|----------------------------------------------------------|



E|-------------------------13-15-16^-|
B|-----------------13-15-16----------|
G|---------12-14-15------------------|
D|-12-13-15--------------------------|
A|-----------------------------------|
E|-----------------------------------|


          G      A
Luto pra sobreviver
       Bm                 A
Com os olhos voltados pro céu
       G           A
Espinhos me fazem sofrer
  Bm                 A
Resisto na luta com a graça

          G      A
Luto pra sobreviver
       Bm                 A
Com os olhos voltados pro céu
       G           A
Espinhos me fazem sofrer
  Bm                 A                  G
Resisto na luta com a graça de quem já venceu...


E|-------------------------------------------------------------------------------|
B|-----------1-------------------1--------------------1--------------------------|
G|------4-------4---------4---------4----------2---------2----------2------2-----|   (2x)
D|--------2-----------------2--------2-----------2-----------------2------2------|
A|----0--------------------------------------------------------------------------|
E|----------------------3-------------------3--------------------1------3--------|


( A9 )
Texto Colunas
Alterar tom ½ tom ½ tom
afinação acordes na letra esconder tabs mais »

Comentários 37

  • kelvin.oliveira.731572 kelvin.oliveira.731572: Postado em 25/08/2014 11:27

    video aula

  • andressa andressa: Postado em 14/11/2013 19:07

    Sera que vocês podem mandar a cifra da musica ''nos braços da graça" Ministério radicalize.. em partitura para violino??

  • Elias Elias: Postado em 27/10/2013 11:10

    ai galera ta td errado....essa musica e 2 tons abaixo ok.....

  • Ariel Ariel: Postado em 21/10/2013 15:54

    VÍDEO - AULA AEEE o/

  • daniel.cida.77 daniel.cida.77: Postado em 08/09/2013 07:54

    é que o refrão esta errado brother...o correto no refrão é A, B, C#m, B ok!!!!

  • daniel.cida.77 daniel.cida.77: Postado em 08/09/2013 07:50

    cara ta toda errada esta cifra no refrão meu irmão

  • Mauricio Mauricio: Postado em 02/09/2013 18:05

    o segundo solo está correto ???

  • robegui robegui: Postado em 06/04/2013 21:32

    ta estranho essa cifra.

  • misaelcast misaelcast: Postado em 01/02/2013 14:51

    a original parece mais confiavel só q ñ tem o solo !

  • leonardoviera leonardoviera: Postado em 25/11/2012 00:34

    A tab do solo tem algumas partes bem erradas

Exibindo 10 de 37 comentários Mostrar mais ver todos »
Composição: Gabriel Louback
Esse não é o compositor? Avise-nos.
Contribuição: Arlotta Correções: Danila , Joey e mais 10 »
  1. Domingo de Manhã - Marcos e Belutti Manteve-se 98.258 exibições
  2. Até Você Voltar - Henrique e Juliano Manteve-se 53.974 exibições
  3. Pra Você - Onze:20 Manteve-se 50.133 exibições
  4. Recaídas - Henrique e Juliano Manteve-se 41.598 exibições
  5. Logo Eu - Jorge e Mateus Manteve-se 40.596 exibições
  6. Evidências - Chitãozinho & Xororó Manteve-se 37.100 exibições
  7. Só Os Loucos Sabem - Charlie Brown Jr. Manteve-se 31.698 exibições
  8. Give Me Love - Ed Sheeran Manteve-se 30.072 exibições
  9. Cuida Bem Dela - Henrique e Juliano Manteve-se 29.719 exibições
  10. Pais e Filhos - Legião Urbana Manteve-se 29.263 exibições
  1. Jorge e Mateus- Manteve-se 252.870 exibições
  2. Legião Urbana- Manteve-se 210.599 exibições
  3. Henrique e Juliano- Manteve-se 188.337 exibições
  4. Charlie Brown Jr.- Manteve-se 151.539 exibições
  5. Bruno e Marrone- Manteve-se 138.471 exibições
  6. Marcos e Belutti- Manteve-se 120.396 exibições
  7. Fernandinho- Manteve-se 119.285 exibições
  8. Luan Santana- Manteve-se 108.496 exibições
  9. Thalles Roberto- Manteve-se 94.265 exibições
  10. Victor e Leo- Manteve-se 92.036 exibições
Exibir acordes »

Cifras e tabs

Fórum Cifra Club

Aprenda

Cifra Club News

Mais Serviços Cifra Club ID

Studio Sol

©1996 - 2014 Cifra Club · o primeiro, maior e mais acessado do Brasil · 337 mil músicas · 6.2 milhões pessoas cadastradas

publicidade
fechar