Cifra Club

Continuar

Oficina G3

Cifra: Principal
exibições 468.900
Tom: A#
[Intro]

E|-------------------------------------------------------------------------------|
B|-----------1-------------------1---0----------------1--------------------------|
G|------4-------4---------4---------0----------2---------2----------2------2-----|
D|--------2-----------------2--------------------0-----------------0------0------|
A|----0--------------------------------------------------------------------------|
E|----------------------3-------------------3--------------------1------3--------|

Am9                   Am9/G
Abro os meus olhos já é de manhã
G4               G/F   G
À noite e menor cada dia
Am9                 Am9/G
Os dias às vezes parecem iguais
G4                  G/F    G
A guerra é minha rotina

 Cm   Gm
Peço força
  G#       D#/C
Pra continuar
 Cm   Gm
Peço força
  G#         Bb   Am9  G  F
Pra poder lutar

          F      G
Luto pra sobreviver
       Am                  G
Com os olhos voltados pro céu
             F     G
Espinhos me fazem sofrer
 Am                 G                   D
Resisto na luta com a graça de quem já venceu

E|--------------------------------------------------------------------------|
B|-----------1-------------------1--------------------1---------------------|
G|------4-------4---------4---------4----------2---------2----------2------2|
D|--------2-----------------2--------2-----------2-----------------2------2-|
A|----0---------------------------------------------------------------------|
E|----------------------3-------------------3--------------------1------3---|

 Am9                   Am9/G
Fecho os meus olhos a noite já cai
 G4              G/F      G
Começo a tratar minhas feridas
Am9                    Am9/G
Olho pros céus com os joelhos no chão
     G4              G/F    G
Abro os braços pra graça divina

 Cm      Gm
Peço força
  G#       D#/C
Pra continuar
 Cm      Gm
Peço força
  G#5        Bb5
Pra poder lutar

          F      G
Luto pra sobreviver
       Am                  G
Com os olhos voltados pro céu
             F        G
Espinhos me fazem sofrer
   Am                   G                  D
Resisto na luta com a graça de quem já venceu

 G#           D#/C            D#
Nada vai nos separar do teu grande amor
 Fm         G#                D#            Dm7
Mesmo caminhando em dor, sou mais que vencedor

F  Dm  F  Dm


[Solo]  Cm7  Gm  G#  Bb

E|-15-14-12--------------------12-11-9-----------------------|
B|---------17-15-14-15-14-13-12-------12-11-10-9-------------|
G|----------------------------------------------12-11-9------|
D|-----------------------------------------------------------|
A|-----------------------------------------------------------|
E|-----------------------------------------------------------|

E|---------------14^11h12-11---------------------------------|
B|-14^14^11^13^11-----------11-------------------------------|
G|----------------------------13-12h13-12-10h12-10-8-7h8-7---|
D|--------------------------------------------------------10-|
A|-----------------------------------------------------------|
E|-----------------------------------------------------------|

E|-------11-15-11------18^18----15-16-18-16-15---------------|
B|-----13--------13---------19^---------------18-16-15-------|
G|---12------------12---------------------------------17-----|
D|-10--------------------------------------------------------|
A|-----------------------------------------------------------|
E|-----------------------------------------------------------|

E|-18-16-15------------18-16-15------------------------------|
B|---------18-16-15------------18-16-15-13-------------------|
G|-----------------17---------------------15-14-12-----------|
D|------------------------------------------------15-13-12---|
A|--------------------------------------------------------15-|
E|-----------------------------------------------------------|

E|-------------------------13-15-16^-------------------------|
B|-----------------13-15-16----------------------------------|
G|---------12-14-15------------------------------------------|
D|-12-13-15--------------------------------------------------|
A|-----------------------------------------------------------|
E|-----------------------------------------------------------|

          G      A
Luto pra sobreviver
       Bm                  A
Com os olhos voltados pro céu
      G            A
Espinhos me fazem sofrer
 Bm                 A
Resisto na luta com a graça

          G      A
Luto pra sobreviver
       Bm                  A
Com os olhos voltados pro céu
      G            A
Espinhos me fazem sofrer
 Bm                 A                   G
Resisto na luta com a graça de quem já venceu

E|--------------------------------------------------------------------------|
B|-----------1-------------------1--------------------1---------------------|
G|------4-------4---------4---------4----------2---------2----------2------2| 
D|--------2-----------------2--------2-----------2-----------------2------2-|
A|----0---------------------------------------------------------------------|
E|----------------------3-------------------3--------------------1------3---|

A9

0 comentários

    mostrar mais comentários

    Conseguiu tocar?

    75tocaram4ainda não

    Grave um vídeo tocando Continuar e mande pra gente!

    00:00 / 00:00
    outros vídeos desta música
    repetirqualidadeautomática
    Outro vídeos desta música
      00:00 / 00:00
      automática
      OK