Cifra Club

Aprenda

Continuar

Oficina G3

Cifra: Principal (violão e guitarra)
tom: A
[Intro] Am9  Am9/G  G4  F  G
        Am9  Am9/G  G4  F  G
        Am9  Am9/G  G4  F  G
        Am9  Am9/G  G4  F  G

E|-------------------------------------------------------------------------------|
B|-----------1-------------------1---0----------------1--------------------------|
G|------4-------4---------4---------0----------2---------2----------2------2-----| (4x)
D|--------2-----------------2--------------------0-----------------0------0------|
A|----0--------------------------------------------------------------------------|
E|----------------------3-------------------3--------------------1------3--------|

Am9                   Am9/G
Abro os meus olhos já é de manhã
G4               F   G
À noite e menor cada dia
Am9                 Am9/G
Os dias às vezes parecem iguais
G4                  F    G
A guerra é minha rotina

      Cm   Gm
Peço força
  G#       D#  A#/D
Pra continuar
      Cm   Gm
Peço força
  G#         Bb   Am9  G  F
Pra poder lutar

          F       G
Luto pra sobreviver
       Am                  G
Com os olhos voltados pro céu
             F        G
Espinhos me fazem sofrer
   Am                   G               D9/A
Resisto na luta com a graça de quem já venceu

( Am9  G F C Dm C Bb )

E|--------------------------------------------------------------------------|
B|-----------1-------------------1--------------------1---------------------|
G|------4-------4---------4---------4----------2---------2----------2------2|
D|--------2-----------------2--------2-----------2-----------------2------2-|
A|----0---------------------------------------------------------------------|
E|----------------------3-------------------3--------------------1------3---|

 Am9                   Am9/G
Fecho os meus olhos a noite já cai
   G4                     F    G
Começo a tratar minhas feridas
Am9                     Am9/G
Olho pros céus com os joelhos no chão
          G4                F   G
Abro os braços pra graça divina

      Cm   Gm
Peço força
  G#       D#  A#/D
Pra continuar
      Cm   Gm
Peço força
  G#5        Bb5
Pra poder lutar

          F      G
Luto pra sobreviver
       Am                  G
Com os olhos voltados pro céu
             F        G
Espinhos me fazem sofrer
   Am                   G                  
Resisto na luta com a graça de quem já venceu

 G#           D#            C#          (C)
Nada vai nos separar do teu grande amor
 Fm         G#                D#            Dm7
Mesmo caminhando em dor, sou mais que vencedor

( F  Dm  F  Dm )

[Solo] Cm7  Gm  G#  D# (A#/D)
       Cm7  Gm  G#  Bb

E|-18-16-15-13-16-15-13-11----13-11-------11-----------------------|
B|-------------------------15-------15-13----15-13-11-15-13-11-----|
G|-------------------------------------------------------------13--|
D|-----------------------------------------------------------------|
A|-----------------------------------------------------------------|
E|-----------------------------------------------------------------|

E|-15-13-11-10-13-11-10-8----10-8------8---------------------------|
B|------------------------11------11-9---11-9-8-11-9-8-------------|
G|-----------------------------------------------------10----------|
D|-----------------------------------------------------------------|
A|-----------------------------------------------------------------|
E|-----------------------------------------------------------------|

E|--------------------------------------16-15h16p15----15-------------------------------|------------11-15p11-----------|
B|--13b15-11-13-11-13-15-11-13-11-18b20-------------18----16----------------------------|---------13----------13----13--|
G|-----------------------------------------------------------15-12h13p12----12----------|------12----------------12-----|
D|-----------------------------------------------------------------------15----13-15----|---13--------------------------|
A|-----------------------------------------------------------------------------------15-| 15-----------------------------|
E|--------------------------------------------------------------------------------------|-------------------------------|

E|-11-15-18b20-18----15-16-18-16-15----------18-16-15----------18-16-15-------------------------------------------------|
B|----------------18----------------18-16-15----------18-16-15----------18-16-15---------------------------------13-15--|
G|-------------------------------------------------------------------------------15-13-12---------------12-13-15--------|
D|---------------------------------------------------------------------------------------15-13-12-13-15-----------------|
A|----------------------------------------------------------------------------------------------------------------------|
E|----------------------------------------------------------------------------------------------------------------------|

E|----13-15-16b18~-------|
B|-16--------------------|
G|-----------------------|
D|-----------------------|
A|-----------------------|
E|-----------------------|

          G      A
Luto pra sobreviver
       Bm                  A
Com os olhos voltados pro céu
             G        A
Espinhos me fazem sofrer
   Bm                   A
Resisto na luta com a graça

          G      A
Luto pra sobreviver
       Bm                  A
Com os olhos voltados pro céu
             G        A
Espinhos me fazem sofrer
    Bm                  A                  G
Resisto na luta com a graça de quem já venceu

[Final] Am9  Am9/G  G4  F  G
        Am9  Am9/G  G4  F  G  Am9

E|--------------------------------------------------------------------------|
B|-----------1-------------------1--------------------1---------------------|
G|------4-------4---------4---------4----------2---------2----------2------2|
D|--------2-----------------2--------2-----------2-----------------2------2-|
A|----0---------------------------------------------------------------------|
E|----------------------3-------------------3--------------------1------3---|

E|--------------------------------------------------------------------------|
B|-----------1-------------------1--------------------1---------------------|
G|------4-------4---------4---------4----------2---------2----------2------2|
D|--------2-----------------2--------2-----------2-----------------2------2-|
A|----0---------------------------------------------------------------------|
E|----------------------3-------------------3--------------------1------3---|
Composição de Gabriel Louback / Renato Pimenta
518.979 exibições
    • ½ Tom
    • A
    • Bb
    • B
    • C
    • Db
    • D
    • Eb
    • E
    • F
    • F#
    • G
    • Ab
  • Adicionar à lista

    0 comentários

    Ver todos os comentários
    00:00 / 00:00
    Outros vídeos desta música
    Repetir Qualidade Automático
    Outros vídeos desta música
    00:00 / 00:00
    Automático

    Cifra Club Pro

    Aproveite o Cifra Club com benefícios exclusivos e sem anúncios
    Cifra Club Pro
    Aproveite o Cifra Club com benefícios exclusivos e sem anúncios
    OK