Kerplunk (album)

Green Day

 Green Day
Tom: F#
		
1.	2000 light years away
2.	One for the razorbacks
3.	Welcome to paradise
4.	Christie road
5.	Private ale
6.	Dominated love slave
7.	One of my lies
8.	80
9.	Android
10.	No one knows
11.	Who wrote Holden Caulfield
12.	Words I might have ate
13.	Sweet children
14.	Best thing in town
15.	Strangeland
16.	My Generation

--------------------------------------------------------------------------------------
Green Day 2000 light years away
--------------------------------------------------------------------------------------
Tuning standard

Intro

e|---------------------------------------------------------------------------|
B|---------------------------------------------------------------------------|
G|-4-4-4-4-4---------------4-4-4-4-4---------------4-4-4-4-4-----------------|
D|-4-4-4-4-4--6-4--4-4-4---4-4-4-4-4--6-4--4-4-4---4-4-4-4-4--6-4--4-4-4-----|
A|-2-2-2-2-2--6-4--4-4-4---2-2-2-2-2--6-4--4-4-4---2-2-2-2-2--6-4--4-4-4-----|
E|------------4-2--2-2-2--------------4-2--2-2-2--------------4-2--2-2-2-----|



e|---------------------------------------------------------------------------|
B|---------------------------------------------------------------------------|
G|--4-4-4-4------------------------------------------------------------------|
D|--4-4-4-4--6-4--4-4-4------------------------------------------------------|
A|--2-2-2-2--6-4--4-4-4------------------------------------------------------|
E|-----------4-2--2-2-2------------------------------------------------------|


Verse

e|---------------------------------------------------------------------------|
B|---------------------------------------------------------------------------|
G|-4-4-4-4-4-------------4-4-4-4-4-------------4-4-4-4-4---------------------|
D|-4-4-4-4-4--4-4-4-4-4--4-4-4-4-4--4-4-4-4-4--4-4-4-4-4--4-4-4-4-4----------|
A|-2-2-2-2-2--4-4-4-4-4--2-2-2-2-2--4-4-4-4-4--2-2-2-2-2--4-4-4-4-4----------|
E|------------2-2-2-2-2-------------2-2-2-2-2-------------2-2-2-2-2----------|



e|---------------------------------------------------------------------------|
B|---------------------------------------------------------------------------|
G|-4-4-4-4-4-----------------------------------------------------------------|
D|-4-4-4-4-4--4-4-4-4-4------------------------------------------------------|
A|-2-2-2-2-2--2-2-2-2-2------------------------------------------------------|
E|------------2-2-2-2-2------------------------------------------------------|


Chorus

e|---------------------------------------------------------------------------|
B|---------------------------------------------------------------------------|
G|------------4-4-4-4-4------------------------------------------------------|
D|-6-6-6-6-6--4-4-4-4-4--6-x-x-6-x--4-4-4-4-4-4--2-2-2-2-2-2--4-4-4-4-4-4----|
A|-6-6-6-6-6--2-2-2-2-2--6-x-x-6-x--4-4-4-4-4-4--2-2-2-2-2-2--4-4-4-4-4-4----|
E|-4-4-4-4-4-------------4-x-x-4-x--2-2-2-2-2-2--0-0-0-0-0-0--2-2-2-2-2-2----|



e|---------------------------------------------------------------------------|
B|---------------------------------------------------------------------------|
G|------------4-4-4-4-4------------------------------------------------------|
D|-6-6-6-6-6--4-4-4-4-4--6-x-x-6-x--4-4-4-4-4-4--2-2-2-2-2-2--4-4-4-4-4-4----|
A|-6-6-6-6-6--2-2-2-2-2--6-x-x-6-x--4-4-4-4-4-4--2-2-2-2-2-2--4-4-4-4-4-4----|
E|-4-4-4-4-4-------------4-x-x-4-x--2-2-2-2-2-2--0-0-0-0-0-0--2-2-2-2-2-2----|


Verse 2

e|---------------------------------------------------------------------------|
B|---------------------------------------------------------------------------|
G|-4-4-4-4-4-------------4-4-4-4-4-------------4-4-4-4-4---------------------|
D|-4-4-4-4-4--4-4-4-4-4--4-4-4-4-4--4-4-4-4-4--4-4-4-4-4--4-4-4-4-4----------|
A|-2-2-2-2-2--4-4-4-4-4--2-2-2-2-2--4-4-4-4-4--2-2-2-2-2--4-4-4-4-4----------|
E|------------2-2-2-2-2-------------2-2-2-2-2-------------2-2-2-2-2----------|

PM * * * *    * * * *    * * * *    * * * *    * * * *    * * * *  


e|---------------------------------------------------------------------------|
B|---------------------------------------------------------------------------|
G|-4-4-4-4-4-----------------------------------------------------------------|
D|-4-4-4-4-4--4-4-4-4-4------------------------------------------------------|
A|-2-2-2-2-2--2-2-2-2-2------------------------------------------------------|
E|------------2-2-2-2-2------------------------------------------------------|

PM * * * *    * * * *


Order

Intro
Verse
Chorus
Intro
Verse 2
Chorus
Intro
Intro (just bass)
Verse (just bass)
Chorus
Intro

Lyrics

(Verse 1)
I sit alone in my bedroom, staring at the walls
I've been up all damn nightlong
My pulse is speeding, my love is yearning

(Chorus)
I hold my breath and close my eyes
And dream about her...			
Cause she's 2000 light years away   
She holds my malachite so tight so
Never let go...
Cause she's 2000 light years away

(Verse 2)
I sit outside and watch the sunrise
Lookout as far as I can
I can't see her, but in the distance
I hear some laughter, we laugh together

(Chorus)
I hold my breath and close my eyes
And dream about her...			
Cause she's 2000 light years away   
She holds my malachite so tight so
Never let go...
Cause she's 2000 light years away

(Verse 1)
I sit alone in my bedroom, staring at the walls
I've been up all damn nightlong
My pulse is speeding, my love is yearning

(Chorus)
I hold my breath and close my eyes
And dream about her...			
Cause she's 2000 light years away   
She holds my malachite so tight so
Never let go...
Cause she's 2000 light years away


--------------------------------------------------------------------------------------
Green Day One for the Razorbacks
--------------------------------------------------------------------------------------
Tuning standard

Intro

e|---------------------------------------------------------------------------|
B|-----7------2-------7-------0-------7-------2-------7----------------------|
G|----8------3-------8-------1-------8-------3-------8-----------------------|
D|---9------4-------9-------2-------9-------4-------9------------------------|
A|--9------4-------9-------2-------9-------4-------9-------------------------|
E|-7------2-------7-------0-------7-------2-------7--------------------------|


Verse

e|---------------------------------------------------------------------------|
B|---------------------------------------------------------------------------|
G|----------------------------------------9-9-9-9-9-9------------------------|
D|-9-9-9-9-9-9--4-4-4-4-4-4--9-9-9-9-9-9--9-9-9-9-9-9--9-9-9-9-9-9--4-4-4-4--|
A|-9-9-9-9-9-9--4-4-4-4-4-4--9-9-9-9-9-9--7-7-7-7-7-7--9-9-9-9-9-9--4-4-4-4--|
E|-7-7-7-7-7-7--2-2-2-2-2-2--7-7-7-7-7-7---------------7-7-7-7-7-7--2-2-2-2--|



e|---------------------------------------------------------------------------|
B|---------------------------------------------------------------------------|
G|-----------------------------------------------------------------------9-9-|
D|-4-4--9-9-9-9-9-9--4-4-4-4-4-4--9-9-9-9-9-9--4-4-4-4-4-4--9-9-9-9-9-9--9-9-|
A|-4-4--9-9-9-9-9-9--4-4-4-4-4-4--9-9-9-9-9-9--4-4-4-4-4-4--9-9-9-9-9-9--7-7-|
E|-2-2--7-7-7-7-7-7--2-2-2-2-2-2--7-7-7-7-7-7--2-2-2-2-2-2--7-7-7-7-7-7------|

PM                   * *   * *


e|---------------------------------------------------------------------------|
B|---------------------------------------------------------------------------|
G|-9-9-9-9-------------------------------------------------------------------|
D|-9-9-9-9--9-9-9-9-9-9--4-4-4-4-4-4--9-9-9-9-9-9----------------------------|
A|-7-7-7-7--9-9-9-9-9-9--4-4-4-4-4-4--9-9-9-9-9-9----------------------------|
E|----------7-7-7-7-7-7--2-2-2-2-2-2--7-7-7-7-7-7----------------------------|


Chorus

e|---------------------------------------------------------------------------|
B|---------------------------------------------------------------------------|
G|----------9-9-9-9-----------------------------9-9-9-9----------------------|
D|-4-4-4-4--9-9-9-9--9-9-9-9-9-9-9-9---4-4-4-4--9-9-9-9--9-9-9-9-9-9-9-9-----|
A|-4-4-4-4--7-7-7-7--9-9-9-9-9-9-9-9---4-4-4-4--7-7-7-7--9-9-9-9-9-9-9-9-----|
E|-2-2-2-2-----------7-7-7-7-7-7-7-7---2-2-2-2-----------7-7-7-7-7-7-7-7-----|



e|---------------------------------------------------------------------------|
B|---------------------------------------------------------------------------|
G|----------9-9-9-9-----------------------------9-9-9-9----------------------|
D|-4-4-4-4--9-9-9-9--9-9-9-9-9-9-9-9---4-4-4-4--9-9-9-9--9-9-9-9-9-9-9-9-----|
A|-4-4-4-4--7-7-7-7--9-9-9-9-9-9-9-9---4-4-4-4--7-7-7-7--9-9-9-9-9-9-9-9-----|
E|-2-2-2-2-----------7-7-7-7-7-7-7-7---2-2-2-2-----------7-7-7-7-7-7-7-7-----|



Solo - sorry I couldn't work it out but if you get the one for the razorbacks
tab which was submitted by Chris, Email: cwsmith@together.net his solo sounds right

Order

Intro
Verse
Chorus
Verse
Chorus
Solo
Verse x2
Chorus

Lyrics

(Verse)
Juliet's trying to find out what she wants, but she don't know
Experience has got her down
Look this direction, I know it's not perfection; it's just me...
I want to bring you up again now

(Chorus)
Cause' I'm losing what's left of my dignity
A small price to pay to see that you're happy
Forget all the disappointments you have faced
Open up your worried world and let me in

(Verse)
Juliet's crying cause now she's realizing love can be
Filled with pain and distrust
I know I am crazy, and a bit lazy
But I will try to bring you up again somehow

(Chorus)
Cause' I'm losing what's left of my dignity
A small price to pay to see that you're happy
Forget all the disappointments you have faced
Open up your worried world and let me in

(Verse)
Juliet's crying cause now she's realizing love can be
Filled with pain and distrust
I know I am crazy, and a bit lazy
But I will try to bring you up again some how

(Chorus)
Cause' I'm losing what's left of my dignity
A small price to pay to see that you're happy
Forget all the disappointments you have faced
Open up your worried world and let me in



--------------------------------------------------------------------------------------
Green Day Welcome to Paradise
--------------------------------------------------------------------------------------

Tuning: Standard
Note: there is loads of guitars used in this song especially in the interlude but I have
tabbed it out as one guitar it's the easiest way

Intro

e|-----------------------------------------------------------------------------------|
B|-----------------------------------------------------------------------------------|
G|-8-x-8-8-x-6-6-6------8-x-8-8-x-6-6-6------8-x-8-8-x-6-6-6------8-x-8-8-x-6-6-6----| 
D|-8-x-8-8-x-6-6-6-6-6--8-x-8-8-x-6-6-6-6-6--8-x-8-8-x-6-6-6-6-6--8-x-8-8-x-6-6-6-6-6|
A|-6-x-6-6-x-4-4-4-6-6--6-x-6-6-x-4-4-4-6-6--6-x-6-6-x-4-4-4-6-6--6-x-6-6-x-4-4-4-6-6|
E|-----------------4-4------------------4-4------------------4-4------------------4-4|


Verse

e|-----------------------------------------------------------------------------------|
B|-----------------------------------------------------------------------------------|
G|-8-8-8-8-8-6-6-6-6-6--8-x-8-8-x-8-8-8-8-8-8-8-8-8-8--6-6-6-6-6-----------6-6-6-6---| 
D|-8-8-8-8-8-6-6-6-6-6--8-x-8-8-x-8-8-8-8-8-8-8-8-8-8--6-6-6-6-6--2-2-4-4--6-6-6-6---|
A|-6-6-6-6-6-4-4-4-4-4--6-x 6-6-x-6-6-6-6-6-6-6-6-6-6--4-4-4-4-4--2-2-4-4--4-4-4-4---|
E|----------------------------------------------------------------0-0-2-2------------|



e|----------------------------------------------------------------------------------|
B|----------------------------------------------------------------------------------|
G|-8-8-8-8-8-6-6-6-6-6--8-x-8-8-x-8-8-8-8-8-8-8-8-8-8-6-6-6-6-6-----------6-6-6-6---|
D|-8-8-8-8-8-6-6-6-6-6--8-x-8-8-x-8-8-8-8-8-8-8-8-8-8-6-6-6-6-6--2-2-4-4--6-6-6-6--2|
A|-6-6-6-6-6-4-4-4-4-4--6-x 6-6-x-6-6-6-6-6-6-6-6-6-6-4-4-4-4-4--2-2-4-4--4-4-4-4--2|
E|---------------------------------------------------------------0-0-2-2-----------0|



e|-----------------------------------------------------------------------------------|
B|-----------------------------------------------------------------------------------|
G|----------6-6-6-6-6-6--------------------------------------------------------------| 
D|--2--4-4--6-6-6-6-6-6--------------------------------------------------------------|
A|--2--4-4--4-4-4-4-4-4--------------------------------------------------------------|
E|--0--2-2---------------------------------------------------------------------------|


Chorus

e|-----------------------------------------------------------------------------------|
B|-----------------------------------------------------------------------------------|
G|---------------------2-2-2-2-2-6-6-6-6-6----------------------6-6-6-6-6-6-6-6------| 
D|-2-2-2-2-2-6-6-6-6-6-2-2-2-2-2-6-6-6-6-6--2-2-2-2-2-6-6-6-6-6-6-6-6-6-6-6-6-6--2-2-|
A|-2-2-2-2-2-6-6-6-6-6-0-0-0-0-0-4-4-4-4-4--2-2-2-2-2-6-6-6-6-6-4-4-4-4-4-4-4-4--2-2-|
E|-0-0-0-0-0-4-4-4-4-4----------------------0-0-0-0-0-4-4-4-4-4------------------0-0-|



e|-----------------------------------------------------------------------------------|
B|-----------------------------------------------------------------------------------|
G|-------------------2-2-2-2-2-6-6-6-6-6---------------------------------------------|
D|---2-2-2-6-6-6-6-6-2-2-2-2-2-6-6-6-6-6---------------------------------------------|
A|---2-2-2-6-6-6-6-6-0-0-0-0-0-4-4-4-4-4---------------------------------------------|
E|---0-0-0-4-4-4-4-4-----------------------------------------------------------------|


Fill 1

e|---------------|-------------------------------------------------------------------|
B|---------------|-------------------------------------------------------------------|
G|-------------4-|-8-x-6-6-x-4-4-4-----8-x-8-8-x-6-6-6-------------------------------|
D|-2-2--2-2--2-4-|-8-x-6-6-x-4-4-4--6--8-x-8-8-x-6-6-6-6-6---------------------------|
A|-2-2--2-2--2-2-|-6-x-6-6-x-4-4-4--6--6-x-6-6-x-4-4-4-6-6---------------------------|
E|-0-0--0-0--0---|------------------4------------------4-4---------------------------|


Fill 2

e|-----------------------------------------------------------------------------------|
B|-----------------------------------------------------------------------------------|
G|-------------4--8-x-6-6-x-4-4-4-----8-x-8-8-x-6-6-6------8-x-8-8-x-6-6-6-----------|
D|-2-2--2-2--2-4--8-x-6-6-x-4-4-4--6--8-x-8-8-x-6-6-6-6-6--8-x-8-8-x-6-6-6-6-6-------|
A|-2-2--2-2--2-2--6-x-6-6-x-4-4-4--6--6-x-6-6-x-4-4-4-6-6--6-x-6-6-x-4-4-4-6-6-------|
E|-0-0--0-0--0---------------------4------------------4-4------------------4-4-------|



e|-----------------------------------------------------------------------------------|
B|-----------------------------------------------------------------------------------|
G|-8-x-8-8-x-6-6-6-------------------------------------------------------------------|
D|-8-x-8-8-x-6-6-6-6-6---4~~---------------------------------------------------------|
A|-6-x-6-6-x-4-4-4-6-6---4~~---------------------------------------------------------|
E|-----------------4-4---2~~---------------------------------------------------------|



Bridge (gradually release palm mute)

e|----------------------------|
B|----------------------------|
G|-9-9-9--8-8-8--7-7-7--6-6-6-|
D|-9-9-9--8-8-8--7-7-7--6-6-6-| x8
A|-7-7-7--6-6-6--5-5-5--4-4-4-|
E|----------------------------|

PM ***    ***    ***    ***

End

e|-----------------------------------------------------------------------------------|
B|-----------------------------------------------------------------------------------|
G|----8-x-8-8-x-6-6-6------8-x-8-8-x-6-6-6------8-x-8-8-x-6-6-6------8-x-8-8-x-6-6-6-|
D|-6--8-x-8-8-x-6-6-6-6-6--8-x-8-8-x-6-6-6-6-6--8-x-8-8-x-6-6-6-6-6--8-x-8-8-x-6-6-6-|
A|-6--6-x-6-6-x-4-4-4-6-6--6-x-6-6-x-4-4-4-6-6--6-x-6-6-x-4-4-4-6-6--6-x-6-6-x-4-4-4-|
E|-4------------------4-4------------------4-4------------------4-4------------------|



e|-----------------------------------------------------------------------------------|
B|-----------------------------------------------------------------------------------|
G|-----------------------------------------------------------------------------------|
D|-6-6\8-----------------------------------------------------------------------------|
A|-6-6\8-----------------------------------------------------------------------------|
E|-4-4\6-----------------------------------------------------------------------------|


Order

Intro
Verse
Chorus
Fill 1
Verse
Chorus
Fill 2
Bridge
Verse
Chorus
End


Lyrics

(Verse)
Dear mother,
Can you hear me whining?
It's been three whole weeks
Since that I have left your home
This sudden fear has left me trembling
Cause now it seems that I am out here on my own
And I'm feeling so alone

(Chorus)
Pay attention to the cracked streets
And the broken homes
Some call it slums
Some call it nice
I want to take you through 
A wasteland I like to call 
My home
Welcome To Paradise

(Verse)
A gunshot rings out at the station
Another urchin snaps and left dead on his own
It makes me wonder why I'm still here
For some strange reason its now
Feeling like my home 
And I'm never gonna go

(Chorus)
Pay attention to the cracked streets
And the broken homes
Some call it slums
Some call it nice
I want to take you through 
A wasteland I like to call 
My home
Welcome To Paradise

(Verse)
Dear mother,
Can you hear me laughing?               
It's been six whole months since 
Since that I have left your home
It makes me wonder why I'm still here
For some strange reason it's now
Feeling like my home 
And I'm never gonna go

(Chorus)
Pay attention to the cracked streets
And the broken homes
Some call it slums
Some call it nice
I want to take you through 
A wasteland I like to call 
My home
Welcome To Paradise

(Outro)
To paradise

--------------------------------------------------------------------------------------
Green Day Christie Road
--------------------------------------------------------------------------------------
Tuning Standard

Verse

e|---------------------------------------------------------------------------|
B|---------------------------------------------------------------------------|
G|---------------------------------------------------5-5-5-5-5-5-5-5-5-5-5-5-|
D|-5-5-5-5-5-5-5-5-5-5-5-5--2-2-2-2-2-2-2-2-2-2-2-2--5-5-5-5-5-5-5-5-5-5-5-5-|
A|-5-5-5-5-5-5-5-5-5-5-5-5--2-2-2-2-2-2-2-2-2-2-2-2--3-3-3-3-3-3-3-3-3-3-3-3-|
E|-3-3-3-3-3-3-3-3-3-3-3-3--0-0-0-0-0-0-0-0-0-0-0-0--------------------------|

PM *************************************************************************


e|-0------------0-------0----------------------------------------------------|
B|-3--3----3------3---3---3---3----------------------------------------------|
G|-2----2----2------2-------2------------------------------------------------|
D|-0------------------------------5-5-5-5-5-5-5-5-5-5-5-5--2-2-2-2-2-2-2-2-2-|
A|--------------------------------5-5-5-5-5-5-5-5-5-5-5-5--2-2-2-2-2-2-2-2-2-|
E|--------------------------------3-3-3-3-3-3-3-3-3-3-3-3--0-0-0-0-0-0-0-0-0-|

PM                                ******************************************


e|-------------------------------------0-------------0-------0---------------|
B|-------------------------------------3--3----3-------3---3---3---3---------|
G|--------5-5-5-5-5-5-5-5-5-5-5-5------2----2----2-------2-------2-----------|
D|-2-2-2--5-5-5-5-5-5-5-5-5-5-5-5------0-------------------------------------|
A|-2-2-2--3-3-3-3-3-3-3-3-3-3-3-3--------------------------------------------|
E|-0-0-0---------------------------------------------------------------------|

PM *****

Chorus (Where there are palm mute marks just palm mute lightly)

e|-0------------0-------0---------0------------0-------0---------0-----------|
B|-3--3----3------3---3---3---2---3--3----3------3---3---3---3---3--3---3----|
G|-2----2----2------2-------2-----2----2----2------2-------2-----2----2---2--|
D|-0------------------------------0------------------------------0-----------|
A|---------------------------------------------------------------------------|
E|---------------------------------------------------------------------------|

PM ******************************                                ************


e|-0-------0---------0-----------0-------0--------0------------0------0------|
B|---3---3---3---3---3--3---3------3---3---3---3--3--3----3------3---3--3---3|
G|-----2-------2-----2----2---2------2-------2----2----2----2------2------2--|
D|-------------------0----------------------------0--------------------------|
A|---------------------------------------------------------------------------|
E|---------------------------------------------------------------------------|

PM*******************                             ***************************


e|-0------------0-------0----------------------------------------------------|
B|-3--3----3------3---3---3---3----------------------------------------------|
G|-2----2----2------2-------2-------5~~--------------7~~---------------------|
D|-0--------------------------------5~~-----5~~------7~~---------------------|
A|----------------------------------3~~-----5~~------5~~---------------------|
E|------------------------------------------3~~------------------------------|


Bridge

e|---------------------------------------------------------------------------|
B|---------------------------------------------------------------------------|
G|----------------5-5----------------------------5-5-------------------------|
D|-5-5--x-x--3-3--5-5-x-x--3-3----5-5--x-x--3-3--5-5-x-x--3-3----------------|
A|-5-5--x-x--3-3--3-3-x-x--3-3----5-5--x-x--3-3--3-3-x-x--3-3----------------|
E|-3-3--x-x--1-1------x-x--1-1----3-3--x-x--1-1------x-x--1-1----------------|



e|---------------------------------------------------------------------------|
B|---------------------------------------------------------------------------|
G|----------------5-5----------------------------5-5-------------------------|
D|-5-5--x-x--3-3--5-5-x-x--3-3----5-5--x-x--3-3--5-5-x-x--3-3----------------|
A|-5-5--x-x--3-3--3-3-x-x--3-3----5-5--x-x--3-3--3-3-x-x--3-3----------------|
E|-3-3--x-x--1-1------x-x--1-1----3-3--x-x--1-1------x-x--1-1----------------|



e|---------------------------------------------------------------------------|
B|---------------------------------------------------------------------------|
G|----------------5-5----------------------------5-5-------------------------|
D|-5-5--x-x--3-3--5-5-x-x--3-3----5-5--x-x--3-3--5-5-x-x--3-3----------------|
A|-5-5--x-x--3-3--3-3-x-x--3-3----5-5--x-x--3-3--3-3-x-x--3-3----------------|
E|-3-3--x-x--1-1------x-x--1-1----3-3--x-x--1-1------x-x--1-1----------------|


Interlude

e|---------------------------------------------------------------------------|
B|---------------------------------------------------------------------------|
G|---------------------------------------5-5-5-5-5-5-5-5-5-5-----------------|
D|-5-5-5-5-5-5-5-5--9-9-9-9-9-9-9-9-9-9--5-5-5-5-5-5-5-5-5-5-3-3-3-3-3-3-3-3-|
A|-5-5-5-5-5-5-5-5--9-9-9-9-9-9-9-9-9-9--3-3-3-3-3-3-3-3-3-3-3-3-3-3-3-3-3-3-|
E|-3-3-3-3-3-3-3-3--7-7-7-7-7-7-7-7-7-7----------------------1-1-1-1-1-1-1-1-|

PM **************************************************************************


e|---------------------------------------------------------------------------|
B|---------------------------------------------------------------------------|
G|---------------------------------------5-5-5-5-5-5-5-5-5-5-----------------|
D|-5-5-5-5-5-5-5-5--9-9-9-9-9-9-9-9-9-9--5-5-5-5-5-5-5-5-5-5-3-3-3-3-3-3-3-3-|
A|-5-5-5-5-5-5-5-5--9-9-9-9-9-9-9-9-9-9--3-3-3-3-3-3-3-3-3-3-3-3-3-3-3-3-3-3-|
E|-3-3-3-3-3-3-3-3--7-7-7-7-7-7-7-7-7-7----------------------1-1-1-1-1-1-1-1-|

PM***************************************************************************


e|---------------------------------------------------------------------------|
B|---------------------------------------------------------------------------|
G|---------5-5-5-5-5-5-5-5----------5-5-5-5-5-5-5-5----------5-5-5-5-5-5-5-5-|
D|-3-3-5-5-5-5-5-5-5-5-5-5--3-3-5-5-5-5-5-5-5-5-5-5--3-3-5-5-5-5-5-5-5-5-5-5-|
A|-3-3-5-5-3-3-3-3-3-3-3-3--3-3-5-5-3-3-3-3-3-3-3-3--3-3-5-5-3-3-3-3-3-3-3-3-|
E|-1-1-3-3------------------1-1-3-3------------------1-1-3-3-----------------|



e|---------------------------------------------------------------------------|
B|---------------------------------------------------------------------------|
G|------------------5-5-5-5-5-5-5-5--3-3-3-3-3-3-3-3--5-5-5-5-5-5-5-5--------|
D|-3-3-3-3-3-3-3-3--5-5-5-5-5-5-5-5--3-3-3-3-3-3-3-3--5-5-5-5-5-5-5-5--------|
A|-3-3-3-3-3-3-3-3--3-3-3-3-3-3-3-3--1-1-1-1-1-1-1-1--3-3-3-3-3-3-3-3--------|
E|-1-1-1-1-1-1-1-1-----------------------------------------------------------|


Outro

e|---------------------------------------------------------------------------|
B|---------------------------------------------------------------------------|
G|----------------5-5----------------------------5-5-------------------------|
D|-5-5--x-x--3-3--5-5-x-x--3-3----5-5--x-x--3-3--5-5-x-x--3-3----------------|
A|-5-5--x-x--3-3--3-3-x-x--3-3----5-5--x-x--3-3--3-3-x-x--3-3----------------|
E|-3-3--x-x--1-1------x-x--1-1----3-3--x-x--1-1------x-x--1-1----------------|



e|---------------------------------------------------------------------------|
B|---------------------------------------------------------------------------|
G|----------------5-5----------------------------5-5-------------------------|
D|-5-5--x-x--3-3--5-5-x-x--3-3----5-5--x-x--3-3--5-5-x-x--3-3----------------|
A|-5-5--x-x--3-3--3-3-x-x--3-3----5-5--x-x--3-3--3-3-x-x--3-3----------------|
E|-3-3--x-x--1-1------x-x--1-1----3-3--x-x--1-1------x-x--1-1----------------|


Order

Verse
Chorus
Verse
Chorus
Bridge
Interlude
Outro

Lyrics

(Verse 1)
Staring out of my window 
Watching the cars go rolling by
And my friends are gone
I've got nothing to do

So I sit here patiently
Watching the clock tick so slowly
Gotta get away
Or my brains will explode

(Chorus)
Give me something to do to kill some time
Take me to that place that I call home
Take away the strains of being lonely
Take me to the tracks and Christie road 

(Verse 2)
See the hills from above
Standing on my beat up car
And the sun went down
And the night fills the sky

Now I feel like me once again
As I train comes a rolling in
Smoked by boredom - gone
Slapped my brains out so high

(Chorus)
Give me something to do to kill some time
Take me to that place that I call home
Take away the strains of being lonely
Take me to the tracks and Christie road

(Interlude)
Mother stay out of my way
Of that place we go
We'll always seem to find our way 
To Christie road
Mother stay out of my way
Of that place we go
We'll always seem to find our way 
To Christie road

If there's one thing that I need
That makes me feel complete
So I go to Christie road its Home... its Home

(Outro)
Its Home
Its Home
Its Home

--------------------------------------------------------------------------------------
Green Day Private Ale 
--------------------------------------------------------------------------------------
Tuning Standard
I haven't bothered to tab any lead for this song because, well, I can't be bothered 

Intro

E|------------------------------------------------------------------|
B|------------------------------------------------------------------|
G|------------------------------------------------------------------|
D|--6-6-6-6-6-6-6-6-6-6-6-6-6-6-6-6-6-6-6-6-6-6-6-6-6-6-6-6-6-6-6-6-|
A|--6-6-6-6-6-6-6-6-6-6-6-6-6-6-6-6-6-6-6-6-6-6-6-6-6-6-6-6-6-6-6-6-|
E|--4-4-4-4-4-4-4-4-4-4-4-4-4-4-4-4-4-4-4-4-4-4-4-4-4-4-4-4-4-4-4-4-|

PM  ***********************************************

Verse

e|-------------------------------------------------------------------|
B|-------------------------------------------------------------------|
G|--------------------------------------------------6-6-6-6-x-6-6-6-6|
D|-6-6-6-6-6-6-6-6-6-6-6-6-6-6-6-6-6-6-6-6-6-6-6-6--6-6-6-6-x-6-6-6-6|
A|-6-6-6-6-6-6-6-6-6-6-6-6-6-6-6-6-6-6-6-6-6-6-6-6--4-4-4-4-x-4-4-4-4|
E|-4-4-4-4-4-4-4-4-4-4-4-4-4-4-4-4-4-4-4-4-4-4-4-4-------------------|

PM ***********************************


e|-------------------------------------------------|
B|-------------------------------------------------|
G|-------------------------------------------------|
D|-6-6-6-6-x-6-6-6-6-------------------------------|
A|-6-6-6-6-x-6-6-6-6-------------------------------|
E|-4-4-4-4-x-4-4-4-4-------------------------------|


Chorus

e|----------------------------|----------------------------|
B|----------------------------|----------------------------|
G|-6-6-6-6-------8-8-8-8-8-8--|-6-6-6-6-------8-8-8-8-8-8--|
D|-6-6-6-6--6-6--8-8-8-8-8-8--|-6-6-6-6--6-6--8-8-8-8-8-8--|
A|-4-4-4-4--6-6--6-6-6-6-6-6--|-4-4-4-4--6-6--6-6-6-6-6-6--|
E|----------4-4---------------|----------4-4---------------|


Post Chorus

e|---------------------------|---------------------------|
B|---------------------------|---------------------------|
G|----------------------6-6--|----------------------6-6--|
D|-6-6-6-6--x--4-4-4-4--6-6--|-6-6-6-6--x--4-4-4-4--6-6--|
A|-6-6-6-6--x--4-4-4-4--4-4--|-6-6-6-6--x--4-4-4-4--4-4--|
E|-4-4-4-4--x--2-2-2-2-------|-4-4-4-4--x--2-2-2-2-------|


Bridge

e|--------------|--------------|--------------|--------------|
B|--------------|--------------|--------------|--------------|
G|------5-5-----|------5-5-----|------5-5-----|------5-5-----|
D|-6-6--5-5-4~--|-6-6--5-5-4~--|-6-6--5-5-4~--|-6-6--5-5-4~--|
A|-6-6--3-3-4~--|-6-6--3-3-4~--|-6-6--3-3-4~--|-6-6--3-3-4~--|
E|-4-4------2~--|-4-4------2~--|-4-4------2~--|-4-4------2~--|


Bass solo (guitar plays this while bass plays a solo)

e|-------------------|-------------------|-----------------|-----------------|
B|-------------------|-------------------|-----------------|-----------------|
G|-6-6-6-6-----------|-6-6-6-6-----------|-6-6-6-6---------|-6-6-6-6---------|
D|-6-6-6-6--6-6-6-6--|-6-6-6-6--6-6-6-6--|-6-6-6-6--6-6-6-6|-6-6-6-6--6-6-6-6|
A|-4-4-4-4--6-6-6-6--|-4-4-4-4--6-6-6-6--|-4-4-4-4--6-6-6-6|-4-4-4-4--6-6-6-6|
E|----------4-4-4-4--|----------4-4-4-4--|----------4-4-4-4|----------4-4-4-4|


Outro (with feedback)

e|----------------------------|
B|----------------------------|
G|-8-8-8-8~~~-----------------|
D|-8-8-8-8~~~-----------------|
A|-6-6-6-6~~~-----------------|
E|----------------------------|


Order

Intro x2
Verse x2
Chorus x2
Post Chorus x2
Verse x2
Chorus x2
Post Chorus x2
Bridge
Bass solo bit
Chorus x2
Bridge
Outro

Lyrics

(Verse)
I wonder down these streets all by myself
Think of my future now I just don't know
I don't seem to care
I stop to notice that
I'm by your home
I wonder if you're sitting all alone
Or is your boyfriend there

(Chorus)
Because I feel so right
Let my imagination go
Until you're in my sight
And through my veins temptation flows
Whoa hoe...
Out here...

(Verse)
So I sit down here on the hard concrete
Think of my future now
I just don't know
I don't seem to care
So I sit across the street from your home
I wonder if you're sitting all alone
Or is your boyfriend there

(Chorus)
Because I feel so right
Let my imagination go
Until you're in my sight
And through my veins temptation flows
Whoa hoe...
Out here...

(Chorus)
Because I feel so right
Let my imagination go
Until you're in my sight
And through my veins temptation flows
Whoa hoa...
Out here...



--------------------------------------------------------------------------------------
Dominated love slave
--------------------------------------------------------------------------------------
Tuning standard
The quirky tune about whips and other kinds of bondage.
Written by Tre', rhythm guitar Tre', Lead vocals Tre'

Intro (played clean)

e|---------------------------------------------------------------------------|
B|---------------------------------------------------------------------------|
G|--------------------7-7-7-7-7-7-7-7-7-7-7-7-7-7-7-7-7-7--------------------|
D|-7-7--7--7--7--7----7-7-7-7-7-7-7-7-7-7-7-7-7-7-7-7-7-7--------------------|
A|-7-7--7--7--7--7----5-5-5-5-5-5-5-5-5-5-5-5-5-5-5-5-5-5--------------------|
E|-5-5--5--5--5--5-----------------------------------------------------------|

Pm * *  *  *  *  *

Verse (played clean)
Part 1

e|---------------------------------------------------------------------------|
B|---------------------------------------------------------------------------|
G|-7-7-7-7--------------7-7-7-7------------7-7-7-7-----------7-7-x-7---------|
D|-7-7-7-7-5-5-5-5-5-5--7-7-7-7-5-5-5-5-5--7-7-7-7--5-5-5-5--7-7-x-7-7-7-x-7-|
A|-5-5-5-5-5-5-5-5-5-5--5-5-5-5-5-5-5-5-5--5-5-5-5--5-5-5-5--5-5-x-5-7-7-x-7-|
E|---------3-3-3-3-3-3----------3-3-3-3-3-----------3-3-3-3----------5-5-x-5-|


                  Part 2

e|---------------|------------------------------------------------------------|
B|---------------|------------------------------------------------------------|
G|-7-x-x-7-7-7-7-|--7-7-7-7--------------7-7-7-7------------7-7-7-7-----------|
D|-7-x-x-7-7-7-7-|--7-7-7-7-5-5-5-5-5-5--7-7-7-7-5-5-5-5-5--7-7-7-7--5-5-5-5--|
A|-5-x-x-5-5-5-5-|--5-5-5-5-5-5-5-5-5-5--5-5-5-5-5-5-5-5-5--5-5-5-5--5-5-5-5--|
E|---------------|----------3-3-3-3-3-3----------3-3-3-3-3-----------3-3-3-3--|


                                   Part 3

e|--------------------------------|-------------------------------------------|
B|--------------------------------|-------------------------------------------|
G|-7-7-x-7----------7-x-x-7-7-7-7-|--7-7-7-7--------------7-7-7-7-------------|
D|-7-7-x-7-7-7-x-7--7-x-x-7-7-7-7-|--7-7-7-7-5-5-5-5-5-5--7-7-7-7-5-5-5-5-5---|
A|-5-5-x-5-7-7-x-7--5-x-x-5-5-5-5-|--5-5-5-5-5-5-5-5-5-5--5-5-5-5-5-5-5-5-5---|
E|---------5-5-x-5----------------|----------3-3-3-3-3-3----------3-3-3-3-3---|



e|---------------------------------------------------------------------------|
B|---------------------------------------------------------------------------|
G|-7-7-7-7-----------7-7-x-7-----------7-x-x-7-7-7-7-------------------------|
D|-7-7-7-7--5-5-5-5--7-7-x-7--7-7-x-7--7-x-x-7-7-7-7-------------------------|
A|-5-5-5-5--5-5-5-5--5-5-x-5--7-7-x-7--5-x-x-5-5-5-5-------------------------|
E|----------3-3-3-3-----------5-5-x-5----------------------------------------|


Solo  (played with heavy distortion and I think with a bit of wah wah effect)

e|----0-0-0--3-3------3--0-0-0--0-0--------0-0-0--2-2----2--0-0-0----14b-----|
B|----2-2-2--2-2----2----2-2-2--0-0--------2-2-2--1-1---1---2-2-2\-----------|
G|----2-2-2--3-3--3------2-2-2--1-1-----1--2-2-2--2-2--2----2-2-2\-----------|
D|----2-2-2--0-0-0-------2-2-2--2-2----2---2-2-2--0-0-0-----2-2-2\-----------|
A|------------------------------2-2---2--------------------------------------|
E|-0----------------------------0-0--0---------------------------------------|


Order

Intro
Verse
Solo
Verse 1, part 2 (slightly palm mute the strings)

If any one has a bass tab for dominated love song cud you plz email it to me thanks

Lyrics

(Verse 1, part 1)
I wanna be your dominated love slave
I wanna be the one who takes the pain
You can spank me when I do not behave
Mack me in the forehead with a chain

(Verse 1, part 2)
Cos I love feelin dirty
And I love feelin cheap
And I love it when you hurt me
So drive them staples deep

(Verse 1, part 3)
Want you to slap me and call me naughty
Put belt sander Against my skin
Wanna feel pain all over body
Can wait to be punished for my sins

(Verse 1, part 2)
Cos I love feelin dirty
And I love feelin cheap
And I love it when you hurt me
So drive them staples deep

(Verse 1, part 2)
Cos I love feelin dirty
And I love feelin cheap
And I love it when you hurt me
So drive________ staples?

--------------------------------------------------------------------------------------
Green Day One of my lies
--------------------------------------------------------------------------------------
Tuning Standard

Intro

e|---------------------------------------------------------------------------|
B|---------------------------------------------------------------------------|
G|-x--7-7-7-7-7-----------------------------------------------7-7-7-7-7------|
D|-x--7-7-7-7-7--7-7-7-7-7-7-7--5-x-x--5-5-5--x-x--7-7-7-7----7-7-7-7-7--7-7-|
A|-x--5-5-5-5-5--7-7-7-7-7-7-7--5-x-x--5-5-5--x-x--7-7-7-7----5-5-5-5-5--7-7-|
E|---------------5-5-5-5-5-5-5--3-x-x--3-3-3--x-x--5-5-5-5---------------5-5-|



e|---------------------------------------------------------------------------|
B|---------------------------------------------------------------------------|
G|---------------------------------------------------------------------------|
D|-7-7-7-7--5-x-x--5-5-5--x-x--7-7-7-----------------------------------------|
A|-7-7-7-7--5-x-x--5-5-5--x-x--7-7-7-----------------------------------------|
E|-5-5-5-5--3-x-x--3-3-3--x-x--5-5-5-----------------------------------------|


Verse 

e|---------------------------------------------------------------------------|
B|---------------------------------------------------------------------------|
G|-7-7-7-7------------------------------------------7-7-7-7------------------|
D|-7-7-7-7--7-7-7-7-7-9--9-9-9--4-4-4-4-4--5-5-5-5--7-7-7-7--7-7-7-7-7-7-7-7-|
A|-5-5-5-5--7-7-7-7-7-9--9-9-9--4-4-4-4-4--5-5-5-5--5-5-5-5--7-7-7-7-7-7-7-7-|
E|----------5-5-5-5-5-7--7-7-7--2-2-2-2-2--3-3-3-3-----------5-5-5-5-5-5-5-5-|



e|---------------------------------------------------------------------------|
B|---------------------------------------------------------------------------|
G|-7-7-7-7------------------------------------------7-7-7-7------------------|
D|-7-7-7-7--7-7-7-7-7--9-9-9-9--4-4-4-4-4--5-5-5-5--7-7-7-7--7-7-7-7-7-7-7-7-|
A|-5-5-5-5--7-7-7-7-7--9-9-9-9--4-4-4-4-4--5-5-5-5--5-5-5-5--7-7-7-7-7-7-7-7-|
E|----------5-5-5-5-5--7-7-7-7--2-2-2-2-2--3-3-3-3-----------5-5-5-5-5-5-5-5-|


Bridge


e|---------------------------------------------------------------------------|
B|---------------------------------------------------------------------------|
G|---------------------------------------------------------------------------|
D|-5-5-5-5-5--7-7-7-7--5-5-5-5-5--7-7-7-7-7-7---5-5-5-5-5--7-7-7-7--5-5-5-5--|
A|-5-5-5-5-5--7-7-7-7--5-5-5-5-5--7-7-7-7-7-7---5-5-5-5-5--7-7-7-7--5-5-5-5--|
E|-3-3-3-3-3--5-5-5-5--3-3-3-3-3--5-5-5-5-5-5---3-3-3-3-3--5-5-5-5--3-3-3-3--|



e|---------------------------------------------------------------------------|
B|---------------------------------------------------------------------------|
G|---------------------------------------------------------------------------|
D|-5--7-7-7-7-7-7------------------------------------------------------------|
A|-5--7-7-7-7-7-7------------------------------------------------------------|
E|-3--5-5-5-5-5-5------------------------------------------------------------|



Chorus

e|---------------------------------------------------------------------------|
B|---------------------------------------------------------------------------|
G|-7-7-7-7--8---------------7-7-7-7--8----------------7-7-7-7--8-------------|
D|-7-7-7-7--8--7-7-7-7-7-7--7-7-7-7--8--7-7-7-7-7-7---7-7-7-7--8--7-7-7-7-7--|
A|-5-5-5-5--6--7-7-7-7-7-7--5-5-5-5--6--7-7-7-7-7-7---5-5-5-5--6--7-7-7-7-7--|
E|-------------5-5-5-5-5-5--------------5-5-5-5-5-5---------------5-5-5-5-5--|



e|---------------------------------------------------------------------------|
B|---------------------------------------------------------------------------|
G|----7-7-7-7--8-------------------------------------------------------------|
D|-7--7-7-7-7--8--7-7-7-7-7-7------------------------------------------------|
A|-7--5-5-5-5--6--7-7-7-7-7-7------------------------------------------------|
E|-5--------------5-5-5-5-5-5------------------------------------------------|


Interlude

e|---------------------------------------------------------------------------|
B|---------------------------------------------------------------------------|
G|---------------------------------------------------------------------------|
D|-5-5-x-x-8--8-8-8-8---5-5-x-x-8--8-8-8-8--5-5-x-x-8--8-8-8-8--5-5-x-x-8----|
A|-5-5-x-x-8--8-8-8-8---5-5-x-x-8--8-8-8-8--5-5-x-x-8--8-8-8-8--5-5-x-x-8----|
E|-3-3-x-x-6--6-6-6-6---3-3-x-x-6--6-6-6-6--3-3-x-x-6--6-6-6-6--3-3-x-x-6----|



e|---------------------------------------------------------------------------|
B|---------------------------------------------------------------------------|
G|---------------------------------------------------------------------------|
D|-8-8-8-8-------------------------------------------------------------------|
A|-8-8-8-8-------------------------------------------------------------------|
E|-6-6-6-6-------------------------------------------------------------------|


Outro

e|-----------0-----------0---------------------------------------------------|
B|----------------------0-0--------------------------------------------------|
G|--7-7-7-7------------------------------------------------------------------|
D|--7-7-7-7-----7-7-7-7------5--x-x--5-5-5--x-x--7-7-------------------------|
A|--5-5-5-5-----7-7-7-7------5--x-x--5-5-5--x-x--7-7-------------------------|
E|--------------5-5-5-5------3--x-x--3-3-3--x-x--5-5-------------------------|

PM  * * * *     * * * *      *  * *  * * *  * *  * *

2nd Outro

e|---------------------------------------------------------------------------|
B|---------------------------------------------------------------------------|
G|-7-7-7-7-7-----------------------------------------------7-7-7-7-7---------|
D|-7-7-7-7-7--7-7-7-7-7-7-7--5-x-x--5-5-5--x-x--7-7-7-7----7-7-7-7-7--7-7----|
A|-5-5-5-5-5--7-7-7-7-7-7-7--5-x-x--5-5-5--x-x--7-7-7-7----5-5-5-5-5--7-7----|
E|------------5-5-5-5-5-5-5--3-x-x--3-3-3--x-x--5-5-5-5---------------5-5----|

PM * * * *    * * * *   * *  * * *    * *  * *  * * *      * * * *    * * 


e|---------------------------------------------------------------------------|
B|---------------------------------------------------------------------------|
G|---------------------------------------------------------------------------|
D|-7-7-7-7-7--5-x-x--5-5-5--x-x--7-7-7-7-------------------------------------|
A|-7-7-7-7-7--5-x-x--5-5-5--x-x--7-7-7-7-------------------------------------|
E|-5-5-5-5-5--3-x-x--3-3-3--x-x--5-5-5-5-------------------------------------|

PM * *   * *  * * *    * *  * *  * * *

Order

Intro
Verse
Bridge
Chorus
Verse
Bridge
Chorus
Interlude
Chorus x2
2nd Outro
Outro

Lyrics

(Verse 1)
When I was younger I thought that the world 
Circled around me
But (in) time I realised I was alone
My year by the thoughts turned in to child's dreams of the near future
It was a tragic case of my reality

(Bridge) 
Do you think your indestructible and no one can touch you?
Well I think your disposable and its time you knew the truth

(Chorus)
Cos this is one of my lies
Oh its just one of my lies
And all I wanna do is get real high
But its just one of my lies

(Verse 2)
Why does my life have to be so small? 
And nothings forever
And does forever have a plot to call his home
Don't give me an answer Cos you only now as much as I know 
Unless you've been their once well I hardly think so

(Bridge) 
Do you think your indestructible and no one can touch you?
Well I think your disposable and its time you knew the truth 

(Chorus)
Cos this is one of my lies
Oh its just one of my lies
And all I wanna do is get real high
But its just one of my lies

(Interlude)
I used to pray all night
Before I lay myself down
My mother said it was right
Her mother said it too...
Why?



[tab#inici
Texto Colunas
Alterar tom ½ tom ½ tom
afinação acordes na letra esconder tabs mais »
2.480 exibições

Comentários 0

Consegui tocarAinda não conseguiram tocar essa música. Seja o primeiro!
    Não consegui tocar
    1. Até Você Voltar - Henrique e Juliano Manteve-se 102.211 exibições
    2. Domingo de Manhã - Marcos e Belutti Manteve-se 82.636 exibições
    3. Cuida Bem Dela - Henrique e Juliano Manteve-se 52.663 exibições
    4. Recaídas - Henrique e Juliano Manteve-se 44.496 exibições
    5. Pra Você - Onze:20 Manteve-se 41.660 exibições
    6. Só Os Loucos Sabem - Charlie Brown Jr. Manteve-se 34.150 exibições
    7. Raridade - Anderson Freire Manteve-se 32.371 exibições
    8. Logo Eu - Jorge e Mateus Manteve-se 31.835 exibições
    9. Pais e Filhos - Legião Urbana Manteve-se 31.024 exibições
    10. Aonde Quer Que Eu Vá - Os Paralamas do Sucesso Manteve-se 27.066 exibições
    1. Henrique e Juliano- Manteve-se 283.302 exibições
    2. Jorge e Mateus- Manteve-se 236.144 exibições
    3. Legião Urbana- Manteve-se 204.893 exibições
    4. Charlie Brown Jr.- Manteve-se 157.122 exibições
    5. Bruno e Marrone- Manteve-se 143.243 exibições
    6. Fernandinho- Manteve-se 122.948 exibições
    7. Luan Santana- Manteve-se 104.800 exibições
    8. Marcos e Belutti- Manteve-se 101.361 exibições
    9. Thalles Roberto- Manteve-se 94.747 exibições
    10. The Beatles- Manteve-se 91.264 exibições
    Exibir acordes »

    Cifras e tabs

    Fórum Cifra Club

    Aprenda

    Cifra Club News

    Mais Serviços Cifra Club ID

    Studio Sol

    ©1996 - 2014 Cifra Club · o primeiro, maior e mais acessado do Brasil · 339 mil músicas · 6.3 milhões pessoas cadastradas

    publicidade
    fechar