Não Murmures; Canta

Harpa Cristã

 Harpa Cristã
Tom: 
		

E|-----------------|-11--10--------4-3-|-1--------------|-------------6-4-|
B|--------------11-|--------13-11--4-4-|-1-------1----1-|-3---1---6---6-6-|
G|-----------------|-12--13-13-12--5-3-|-1-------1------|-3---3-3-3---3-3-|
D|-----------------|-----10-12-13------|---------3----3-|-3---1-0-0---0-0-|
A|--------------13-|-13------------6-6-|----------------|-1---1-----------|
E|-----------------|-11--11-11-11------|--------------4-|-------6-6-------|



E|-3---------------|-11--10-8-----------|-1-------8----8-|-10--8-6---------|
B|-4------------11-|-----------11--9-8--|-1-------6------|---------9---8-6-|
G|-3------------10-|-0---8--8--8---8-8--|-1--------------|-7---8-7-7---7-7-|
D|--------------0--|-13------------8-8--|---------6------|-----8-8-10--8-6-|
A|-6------------13-|-----11-11-10--8-10-|---------8------|-8---------------|
E|-----------------|-11--11-11-11-------|--------------4-|-6---6-6-6---6-6-|



E|--------------2-|-3---3--------8--8--|-8-------7-------|---------------------|
B|-4------------1-|-1---1-8--13--8--8--|-8-------8----8--|-9---9--9--13--11-9--|
G|-5--------------|----------0---------|-----8---7----10-|-10--10-10-10--10-10-|
D|-5------------1-|-1---1-10-10--10-10-|-12-----------9--|-10--10-10-10--10-10-|
A|-6------------3-|-3---3-8------------|-10------10---10-|-8---8--8--11--10-8--|
E|----------------|-------10-11--11-11-|-----------------|---------------------|



E|-----------------|-11--10-8-----------|-1-------8----8-|-10--8-6---------|
B|-8------------11-|-----------11--9-8--|-1-------6------|---------9---8-6-|
G|-7------------10-|-8---8--8--8---8-8--|-1--------------|-7---8-7-7---7-7-|
D|-9------------8--|---------------8-8--|---------6------|-----8-6-10--8-6-|
A|-10--------------|-10--11-11-10--8-10-|---------8------|-8---------------|
E|--------------10-|-11--11-11-11-------|--------------4-|-6---6-6-6---6-6-|



E|-----------------|-8---8--8--8---10-8--|-6-------3----3-|-4---4-3-----6-4-|
B|--------------11-|-----------9---9--9--|-8-------4----4-|-3---3-3-6---6-6-|
G|-0------------0--|-8---8--8--8---8--8--|-8-------3----3-|-3---3-3-3---3-3-|
D|-13-----------13-|---------------------|----------------|---------0---0-0-|
A|-----------------|-11--11-11-11--11-11-|-6-------6----6-|-----------------|
E|-11-----------11-|---------------------|----------------|-6---6-6---------|



E|-3------------6-|-8---8-8-8---10-8-|-6-------3------|-3---3-4-3---3-1-|
B|-4------------4-|-4---4-4-4------4-|--------------4-|-4---4-4-3---3-3-|
G|-3------------0-|-------------8----|-8---7---3----5-|-----3-5-3---1-1-|
D|----------------|-6---6-5--------4-|-5---6---5----5-|-5---------------|
A|-6------------6-|-------------0--0-|---------6----3-|-------------1-1-|
E|----------------|-4---4-4-4--------|-6--------------|-6---6-6-6-------|



E|--------------|
B|--------------|
G|-0------------|
D|-13-----------|
A|-13-----------|
E|-11-----------|

Comentários 0

Consegui tocarAinda não conseguiram tocar essa música. Seja o primeiro!
    Não consegui tocar
    Exibir acordes »
    publicidade
    fechar