Só Em Jesus

Harpa Cristã

 Harpa Cristã
Tom: 
		

E|-4---6-8-9-------|-----------------|-9---8-9-11-------8--|-9---8-----4-----|
B|-6---7---6-----6-|-7---6-----6-----|-6---6-6-9-----11----|---6----11-1-----|
G|-6---6-8-----8-7-|-8-6----8--6---6-|------------11-10-8--|-6---8--0--1-----|
D|-------6-6---8-8-|-8---10-10-6-----|-8---7-8-------------|-8-6----11-----4-|
A|-4-----------9-8-|-6---11-11-----8-|-----6---11----11-12-|-----10----------|
E|-----9-9-9-------|-----------9---9-|-6-----9-8-----9--8--|-6---11-11-------|



E|-4---2---6-------|----------6-----|-9---8-6-4-----1-|-2------------|
B|-2---1-6-------6-|-7---6--------9-|-------2-2-1-4-3-|-4-2-4-4------|
G|-1---1-6-6---8-7-|-8---6-8--6---6-|-6---6---1---3-1-|-----5-5-6----|
D|-3---1-6-----8-6-|-8---6-10-------|-----------------|-4---6-4-3----|
A|---------9---9-8-|-6-----11-9---8-|-8-------------1-|-6-------4----|
E|-------9---------|----------9---9-|-6---4-2-1---2---|-----4-4------|



E|--------------|
B|--------------|
G|--------------|
D|--------------|
A|--------------|
E|--------------|

Comentários 0

Consegui tocarAinda não conseguiram tocar essa música. Seja o primeiro!
    Não consegui tocar
    Exibir acordes »
    publicidade
    fechar