Recaídas

Henrique e Juliano

 Henrique e Juliano
Tom: G
		
Solo Intro:


E|----------------------------------------------------|
B|-6/8--7-8~------------------------------------------|
G|-----------------5----------------------------------|
D|---------------5---7/9~-----------------------------|
A|-----------5h7--------------------------------------|
E|----------------------------------------------------|



Base Intro: G

Primeira Parte:
      G
Você pode, ficar com quem você quiser
                Em7
Não tem nada a ver
                   C9
Eu não mando em você
             Am
Mais ainda choro
                                     D
E quando alguém comenta não quero saber
        G
Me preocupo
                                         Em7
E apesar dos pesares eu sempre quero te ver bem
         C9
E ainda vou além
          Am
Em uma relação sei que não vai ser fácil
               D
Amar outro alguém


Segunda Parte:

   G
E hoje, mesmo separados sinto
                       D
que seu corpo ainda é meu

As vezes me escondo
                              Am
E faço de tudo pra ninguém notar que eu
        C9
Vivo e morro por ti
     Am                                D
Tem semanas que as vezes sofro vem as recaídas

    G
As vezes eu queria ter o poder
                         D
De poder te apagar da memória

E nessa fraqueza ter força pra fazer
              Am                  C9
Com que essa nossa história, não passe
              D                  G    D
De passado e fique da porta pra fora

Refrão:

         G                        D
Se eu pudesse te apagar da minha mente
           Am   C9
Apagaria agora
          G                           D
Mas toda vez que eu me lembro de nós dois
                 Am      C9
Meu coração sempre chora
                 G        D     Am     C9
E é sempre a mesma história   aaa  aaa

Solo:

E|----------------------------------------------------|
B|----------------------------------------------------|
G|---------------7/9~---------------------------------|
D|--------7-9-10--------------------------------------|
A|-7-9-10---------------------------------------------|
E|----------------------------------------------------|



E|----------------------------------------------------|
B|-6/8—7-8~---12-12\10-10-10\8--8-8--7-7--7h8--8~-----|
G|----------------------------------------------------|
D|----------------------------------------------------|
A|----------------------------------------------------|
E|----------------------------------------------------|



E|----------------------------------------------------|
B|-10/12-12\10--10-10\8--8-8--7-7--7-8----------------|
G|-------------------------------------7/9~-----------|
D|----------------------------------------------------|
A|----------------------------------------------------|
E|----------------------------------------------------|



E|-8-8-8--7-7-7---------------------------------------|
B|--------------10-10-10--8-8--8h10--10~--------------|
G|----------------------------------------------------|
D|----------------------------------------------------|
A|----------------------------------------------------|
E|----------------------------------------------------|



E|----------------------------------------------------|
B|-7-8p7-------7-8-10/12~-----------------------------|
G|-------9-7-9----------------------------------------|
D|----------------------------------------------------|
A|----------------------------------------------------|
E|----------------------------------------------------|



Base do Solo: G  Em7  C9  Am  D


Repete a Segunda Parte:

   G
E hoje, mesmo separados sinto
                       D
que seu corpo ainda é meu

As vezes me escondo
                              Am
E faço de tudo pra ninguém notar que eu
        C9
Vivo e morro por ti
     Am                                D
Tem semanas que as vezes sofro vem as recaídas

    G
As vezes eu queria ter o poder
                         D
De poder te apagar da memória

E nessa fraqueza ter força pra fazer
              Am                  C9
Com que essa nossa história, não passe
              D                  G    D
De passado e fique da porta pra fora


Repete o Refrão:

         G                        D
Se eu pudesse te apagar da minha mente
           Am   C9
Apagaria agora
          G                           D
Mas toda vez que eu me lembro de nós dois
                 Am      C9
Meu coração sempre chora
                 G        D     Am     C9  G
E é sempre a mesma história   aaa  aaa


Solo Final:


E|----------------------------------------------------|
B|----------------------------------------------------|
G|---------------7/9~---------------------------------|
D|--------7-9-10--------------------------------------|
A|-7-9-10---------------------------------------------|
E|----------------------------------------------------|



E|----------------------------------------------------|
B|-6/8--7-8~------------------------------------------|
G|-----------------5----------------------------------|
D|---------------5---7/9~-----------------------------|
A|-----------5h7--------------------------------------|
E|----------------------------------------------------|
860.442 exibições

Comentários 73

  • italo italo: Postado em 18/12/2014 - 12:24

    um pouco dificil manter o ritimo
    kk

  • suellen suellen: Postado em 02/12/2014 15:44

    boa de mais!

  • suellen suellen: Postado em 02/12/2014 15:44

    boa de mais!

  • suellen suellen: Postado em 02/12/2014 15:44

    boa de mais!

  • suellen suellen: Postado em 02/12/2014 15:44

    boa de mais!

  • suellen suellen: Postado em 02/12/2014 15:44

    boa de mais!

  • Wenderson Wenderson: Postado em 24/11/2014 21:31

    curtam minha pagina no facebook Wenderson Silva

  • IvAnS2RoSe IvAnS2RoSe: Postado em 22/11/2014 11:36

    boa

  • Rafael Rafael: Postado em 19/11/2014 15:07

    Legal é fácil de tocar

  • Elaine Elaine: Postado em 12/11/2014 18:52

    Adorei.

Exibindo 10 de 73 comentários Mostrar mais ver todos »
Composição: Nivardo Paz
Esse não é o compositor? Avise-nos.
Contribuição: felipe.tarta.5 Correções: Caroline , Ana Clara e mais 15 »
Exibir acordes »
publicidade
fechar