Recaídas

Henrique e Juliano

 Henrique e Juliano
Tom: G
		
Intro: G


E|--------------------------------|
B|--5/8-7-8---------1-------------|
G|----------------0---2/4---------|
D|------------0h2-----------------|
A|--------------------------------|
E|--------------------------------|


    G                                            Em7
Você pode, ficar com quem você quiser não tem nada a ver,

E|--3/5-5/3---------------------------|
B|--3/5-5/3---------------------------|

             C
Eu não mando em você,
           Am                                       D
Mais ainda choro e quando alguém comenta não quero saber,


        G
Me preocupo,E|--3/5-5/3-|e apesar dos pesares
            B|--3/5-5/3-|



                  Em7
Eu sempre quero te ver bem,
        Am
E ainda vou além,
          C                                          D
Em uma relação sei que não vai ser fácil amar outro alguém,


E|--------------------------------|
B|----3-5-5/7---------------------|
G|-4-5----------------------------|


  G
E hoje, mesmo separados sinto
                     D
que seu corpo ainda é meu,

As vezes me escondo,
                            Am                 C
E faço de tudo pra ninguém notar que eu, vivo e morro por ti,
     Am                               D
Tem semanas que as vezes sofro vem as recaídas,

E|--------------------------------|
B|----3-5-5/7-7/8-8/10-10/12------|
G|-4-5----------------------------|

     G                                                D
As vezes eu queria ter o poder, te poder te apagar da memória

E nessa fraqueza ter força pra fazer
              Am                  C
Com que essa nossa história, não passe
            D                    G       D
De passado e fique da porta pra fora.

          G                     D
Se eu pudesse te apagar da minha mente,
            Am     C
Apagaria agora,

G|-5-7/-7/9-9/12-------------------------|

          G                          D
Mas toda vez que eu me lembro de nós dois,
                  Am     C                G            D    Am
Meu coração sempre chora, e é sempre a mesma história.

Solo:


E|------------|
B|------------|
G|-----5-7/9--|
D|--5-7-------|
A|-7----------|

                                                                  teclado

E|-----------5/7-7-7-5-5---------------5/7-7-7-5-5---------|
B|--5/8/7-8------------8-8-7-7-5h7-7/8------------8-8-7-7-7h8-----|
G|-----------------------------------------------------------7/9--|
D|----------------------------------------------------------------|
A|----------------------------------------------------------------|
E|----------------------------------------------------------------|

teclado

E|--------------------------------------------|
B|--13-13-13-12-12-12-10-10-10-8-8-8-8h10-8-7-|
G|--------------------------------------------|
D|--------------------------------------------|



E|-------------2-2/3---|
B|----------3-5--------|
G|-----2-4-5-----------|
D|--4-5----------------|
A|---------------------|
E|---------------------|

Final:


E|--------------------------------|
B|--5/8-7-8---------1-------------|
G|----------------0---2/4---------|
D|------------0h2-----------------|
A|--------------------------------|
E|--------------------------------|
Texto Colunas
Alterar tom ½ tom ½ tom
afinação acordes na letra esconder tabs mais »
37.975 exibições

Comentários (20)

  • Amanda Amanda: Postado em 09/03/2014 10:12

    é o mesmo da musica passaro de fogo.... Fika legal!

  • jrguga jrguga: Postado em 06/03/2014 15:19

    qual que é o ritmo? VIDEO AULA por favor=)

    • Cainã Cainã: Postado em 08/03/2014 18:06

      Eu uso esse : B CC B CC B BC , nao sei se é o ritimo original da musica , mas com esse da pra toca deboa ;)

  • Cainã Cainã: Postado em 03/03/2014 19:35

    Solo:

    B|-5/8-7-8-12-12-10-10-8-8-7-7-7/8-8-12-12-10-10-8-8-7-7-7/8-5--|

    Arranjo do teclado para o violão :

    E|10-10-9-9-7-7-5-5-5/7-7-|

  • victor235 victor235: Postado em 03/03/2014 15:34

    Cante junto e toque "Recaídas" no violão (com intro): watch?v=mHVFMaLICBk

  • boinas2 boinas2: Postado em 28/02/2014 11:17

    Sei fazer o solo completo kkk

    • jheimesbond jheimesbond: Postado em 03/03/2014 12:13

      passa ae

    • Cainã Cainã: Postado em 03/03/2014 18:51

      Comentário removido

    • Cainã Cainã: Postado em 03/03/2014 19:01

      Comentário removido

  • Natan Natan: Postado em 14/02/2014 22:28

    a musica inteira usa esse ritmo
    ↓↑↑↓↑↑↓↑

Exibindo 10 de 20 comentários Mostrar mais ver todos »
Composição: Sabe quem é o compositor? Envie pra gente. Contribuição: felipe.tarta.5 Correções: gudtest , José e mais 9 »
  1. Tudo Que Você Quiser - Luan Santana Manteve-se 6.028 exibições
  2. Lepo Lepo - Psirico Manteve-se 4.297 exibições
  3. Pra Você - Onze:20 Manteve-se 4.147 exibições
  4. Mozão - Lucas Lucco Manteve-se 4.130 exibições
  5. Logo Eu - Jorge e Mateus Manteve-se 3.983 exibições
  6. Gaveta - Fernando e Sorocaba Manteve-se 3.779 exibições
  7. Só Os Loucos Sabem - Charlie Brown Jr. Manteve-se 3.131 exibições
  8. Tempo Perdido - Legião Urbana Manteve-se 2.706 exibições
  9. Fui Fiel - Gusttavo Lima Manteve-se 2.673 exibições
  10. Domingo de Manha - Marcos e Belutti Manteve-se 2.465 exibições
  1. Jorge e Mateus- Manteve-se 23.782 exibições
  2. Legião Urbana- Manteve-se 21.512 exibições
  3. Charlie Brown Jr.- Manteve-se 17.212 exibições
  4. Luan Santana- Manteve-se 17.149 exibições
  5. Fernandinho- Manteve-se 15.105 exibições
  6. Thalles Roberto- Manteve-se 11.065 exibições
  7. Católicas- Manteve-se 10.946 exibições
  8. Gusttavo Lima- Manteve-se 10.939 exibições
  9. Victor e Leo- Manteve-se 10.661 exibições
  10. Bruno e Marrone- Manteve-se 10.324 exibições
Exibir acordes »

Cifras e tabs

Fórum Cifra Club

Aprenda

Cifra Club News

Mais Serviços Cifra Club ID

Studio Sol

©1996 - 2014 Cifra Club · o primeiro, maior e mais acessado do Brasil · 329 mil músicas · 6.0 milhões pessoas cadastradas

publicidade
fechar