Seu Astral

Jorge e Mateus

 Jorge e Mateus
Tom: D
		
Intro 2x: G  A5(9)  Bm  A5(9)


E|--------------------------2-2----------------------|
B|-3-3-3-3-5-5-3-3--0h2h3-5-------3-3--3/5----2---3--|
G|---------------------------------------------------|
D|---------------------------------------------------|
A|---------------------------------------------------|
E|---------------------------------------------------|



E|--------------------------2-2----------------------|
B|-3-3-3-3-5-5-3-3--0h2h3-5-------3-3--3/5----2---0--|
G|---------------------------------------------------|
D|---------------------------------------------------|
A|---------------------------------------------------|
E|---------------------------------------------------|


Primeira parte:

 G               D
Fico sozinho pensando em você
 G                Bm           A
Vejo imagens, retratos de nós
G                         D
Olho pro espelho sinto o meu coração
G                Bm            (A D)
Ouço baixinho o som da sua voz

   G
Dizendo pra mim que é sobrenatural
       Bm               (A D)
Esse amor fora do normal
   G
Dizendo pra mim que sou o seu astral
           A5(9)
Que esse amor que está em mim é tão real

Refrão:

G                             G   A5(9) Bm
  Eu viajei no seu olhar, no teu so___rriso
             A5(9)
Nos teus segredos
G
  Eu descobri o que é amar
G   A5(9) Bm             A5(9)
Pe_lo    toque dos seus beijos

(Repete tudo)

Comentários 96

  • italo italo: Postado em 03/07/2013 15:13

    nesse ritimo tambem fico bom baixo,baixo abafando,cima,baixo,baixo abafando,cima,baixo

  • mateus_munks mateus_munks: Postado em 13/01/2013 17:12

    Galera pra quem ta com dificuldade no solo faz assim q e melhor

    B|-3-3-3-3-5-5-3-3--3-5-7-7-7---3-3--3/5--3--2---3--|

  • hercules_ramon hercules_ramon: Postado em 12/01/2013 11:30

    LOL muito facil... nem precisava de video-aula! tbm acho q as musicas mais difíceis eles ñ colocam a video-aula, mas quando é facil ... =[

  • kidlora kidlora: Postado em 08/12/2012 22:34

    molezinha!!!!
    =)

  • gividaloka gividaloka: Postado em 30/11/2012 18:41

    mt facil!!!!!

  • jharbasl jharbasl: Postado em 08/11/2012 14:07

    conseguir ... facil!

  • reehenderson reehenderson: Postado em 30/10/2012 19:41

    super faaciill....

  • rogeriojose rogeriojose: Postado em 23/09/2012 21:32

    escrevam no you tube "Te espero - Rogério José" vão gostar =]

  • alinecr alinecr: Postado em 10/09/2012 12:20

    facinha , véi . gente tem que abafar com a mão a cada nota ...

  • bielziinho46 bielziinho46: Postado em 04/09/2012 12:58

    facinho

Exibindo 10 de 96 comentários Mostrar mais ver todos »
Composição: Matheus Costa
Esse não é o compositor? Avise-nos.
Contribuição: Tiago Oliveira Correções: Breno Bernardes , Jhonatan e mais 8 »
Exibir acordes »
publicidade
fechar