Cifra Club

Seu Astral

Jorge e Mateus

Cifra: Principal
exibições 1.376.537
Tom: D
Intro 2x: G  A5(9)  Bm  A5(9)


E|--------------------------2-2----------------------|
B|-3-3-3-3-5-5-3-3--0h2h3-5-------3-3--3/5----2---3--|
G|---------------------------------------------------|
D|---------------------------------------------------|
A|---------------------------------------------------|
E|---------------------------------------------------|


E|--------------------------2-2----------------------|
B|-3-3-3-3-5-5-3-3--0h2h3-5-------3-3--3/5----2---0--|
G|---------------------------------------------------|
D|---------------------------------------------------|
A|---------------------------------------------------|
E|---------------------------------------------------|


Primeira parte:

 G               D
Fico sozinho pensando em você
 G                Bm           A
Vejo imagens, retratos de nós
G                         D
Olho pro espelho sinto o meu coração
G                Bm            (A D)
Ouço baixinho o som da sua voz

   G
Dizendo pra mim que é sobrenatural
       Bm               (A D)
Esse amor fora do normal
   G
Dizendo pra mim que sou o seu astral
           A5(9)
Que esse amor que está em mim é tão real

Refrão:

G                             G   A5(9) Bm
  Eu viajei no seu olhar, no teu so___rriso
             A5(9)
Nos teus segredos
G
  Eu descobri o que é amar
G   A5(9) Bm             A5(9)
Pe_lo    toque dos seus beijos

(Repete tudo)

0 comentários

    mostrar mais comentários

    Conseguiu tocar?

    338tocaram1ainda não

    Grave um vídeo tocando Seu Astral e mande pra gente!

    00:00 / 00:00
    outros vídeos desta música
    repetirqualidadeautomática
    Outro vídeos desta música
      00:00 / 00:00
      automática
      Capítulos
      • Início
      • Tocando a música
      • Acordes da música
      • Tocando intro e primeira parte
      • Ensinando ritmo padrão
      • Tocando refrão
      • Ensinando ritmo do refrão final
      • Encerramento
      OK