I Surrender

Hillsong Live

 Hillsong Live Compositor: Matt Crocker
Tom: F
		
Intro: Dm F C Bb


E|-------------------------------|
B|----6-6-----6-6-----6-6-5-3----|
G|-2-------2-------2----------5--|
D|-------------------------------|
A|-------------------------------|
E|-------------------------------|



E|-------------------------------|
B|----6-6-----6-6-----6-6-5-3----|
G|-2-------2-------2----------5--|
D|-------------------------------|
A|-------------------------------|
E|-------------------------------|



E|-------------------------------|
B|----6-6-----6-6-----6-6-5-3----|
G|----------------------------5--|
D|--5------5------5--------------|
A|-------------------------------|
E|-------------------------------|



E|-------------------------------|
B|----6-6-----6-6-----6-6-5-3----|
G|-3-------3-------3----------5--|
D|-------------------------------|
A|-------------------------------|
E|-------------------------------|


Verse:
Dm
Here I am
           F
Down on my knees again
             C
Surrendering all
       Bb
Surrendering all

Dm
Find me here
            F
Lord as You draw me near
              C
Desperate for You
 Bb
Desperate for You

Dm
Drench my soul
             F
As mercy and grace unfold
             C
I hunger and thirst
   Bb
I hunger and thirst

Dm
With arms stretched wide
           F
I know You hear my cry
            C
Speak to me now
  Bb
Speak to me now

  Dm
I surrender
  F
I surrender
          Bb
I want to know You more
          Gm
I want to know You more

Stick
       Bb      F
Like a rushing wind
      C
Jesus breathe within
               Bb
Lord have your way
               F      C
Lord have your way in me

       Bb     F
Like a mighty storm
     C
Stir within my soul
               Bb
Lord have your way
               F      C
Lord have your way in me


E|----13-13-12-10----------------- |
B|-11-------------11-10----------- |7 VEZES



       Bb      F
Like a rushing wind
      C
Jesus breathe within
               Bb
Lord have your way
               F      C
Lord have your way in me

       Bb     F
Like a mighty storm
     C
Stir within my soul
               Bb
Lord have your way
               F      C
Lord have your way in me


E|-------------------------------|
B|----6-6-----6-6-----6-6-5-3----|
G|-2-------2-------2----------5--|
D|-------------------------------|
A|-------------------------------|
E|-------------------------------|



E|-------------------------------|
B|----6-6-----6-6-----6-6-5-3----|
G|-2-------2-------2----------5--|
D|-------------------------------|
A|-------------------------------|
E|-------------------------------|



E|-------------------------------|
B|----6-6-----6-6-----6-6-5-3----|
G|-3-------3-------3----------5--|
D|-------------------------------|
A|-------------------------------|
E|-------------------------------|



E|-------------------------------|
B|----6-6-----6-6-----6-6-5-3----|
G|-3-------3-------3----------5--|
D|-------------------------------|
A|-------------------------------|
E|-------------------------------|
19.615 exibições

Comentários 2

  • Lucas Lucas: Postado em 04/11/2014 18:50

    A tablatura ta muito errada

  • nata.rodrigo nata.rodrigo: Postado em 07/06/2014 17:10

    Essa tablatura tá ao contrário... kkk
    vou tentar editar...

Composição: Sabe quem é o compositor? Envie pra gente. Contribuição: darodrigues Correções: nata.rodrigo , victorenix e mais 2 »
Exibir acordes »
publicidade
fechar