I Surrender

Hillsong Live

Sem foto do Hillsong Live Compositor: Matt Crocker
Tom: F
		
Intro: Dm F C Bb


E|-------------------------------|
A|-------------------------------|
D|-------------------------------|
G|-2-------2-------2----------5--|
B|----6-6-----6-6-----6-6-5-3----|
E|-------------------------------|



E|-------------------------------|
A|-------------------------------|
D|-------------------------------|
G|-2-------2-------2----------5--|
B|----6-6-----6-6-----6-6-5-3----|
E|-------------------------------|



E|-------------------------------|
A|-------------------------------|
D|--5------5------5--------------|
G|----------------------------5--|
B|----6-6-----6-6-----6-6-5-3----|
E|-------------------------------|



E|-------------------------------|
A|-------------------------------|
D|-------------------------------|
G|-3-------3-------3----------5--|
B|----6-6-----6-6-----6-6-5-3----|
E|-------------------------------|


Verse:
Dm
Here I am
           F
Down on my knees again
             C
Surrendering all
       Bb
Surrendering all

Dm
Find me here
            F
Lord as You draw me near
              C
Desperate for You
 Bb
Desperate for You

Dm
Drench my soul
             F
As mercy and grace unfold
             C
I hunger and thirst
   Bb
I hunger and thirst

Dm
With arms stretched wide
           F
I know You hear my cry
            C
Speak to me now
  Bb
Speak to me now

  Dm
I surrender
  F
I surrender
          Bb
I want to know You more
          Gm
I want to know You more

Stick
       Bb      F
Like a rushing wind
      C
Jesus breathe within
               Bb
Lord have your way
               F      C
Lord have your way in me

       Bb     F
Like a mighty storm
     C
Stir within my soul
               Bb
Lord have your way
               F      C
Lord have your way in me


B|-11-------------11-10----------- |
E|----13-13-12-10----------------- |7 VEZES


       Bb      F
Like a rushing wind
      C
Jesus breathe within
               Bb
Lord have your way
               F      C
Lord have your way in me

       Bb     F
Like a mighty storm
     C
Stir within my soul
               Bb
Lord have your way
               F      C
Lord have your way in me


E|-------------------------------|
A|-------------------------------|
D|-------------------------------|
G|-2-------2-------2----------5--|
B|----6-6-----6-6-----6-6-5-3----|
E|-------------------------------|



E|-------------------------------|
A|-------------------------------|
D|-------------------------------|
G|-2-------2-------2----------5--|
B|----6-6-----6-6-----6-6-5-3----|
E|-------------------------------|



E|-------------------------------|
A|-------------------------------|
D|-------------------------------|
G|-3-------3-------3----------5--|
B|----6-6-----6-6-----6-6-5-3----|
E|-------------------------------|



E|-------------------------------|
A|-------------------------------|
D|-------------------------------|
G|-3-------3-------3----------5--|
B|----6-6-----6-6-----6-6-5-3----|
E|-------------------------------|

Texto Colunas
Alterar tom ½ tom ½ tom
afinação acordes na letra esconder tabs mais »
12.625 exibições

Comentários (0)

Composição: Sabe quem é o compositor? Envie pra gente. Contribuição: darodrigues Correções: Klaus e mais 2 »
  1. Tudo Que Você Quiser - Luan Santana Manteve-se 6.037 exibições
  2. Lepo Lepo - Psirico Manteve-se 4.468 exibições
  3. Mozão - Lucas Lucco Manteve-se 4.227 exibições
  4. Logo Eu - Jorge e Mateus Manteve-se 3.853 exibições
  5. Gaveta - Fernando e Sorocaba Manteve-se 3.342 exibições
  6. Pra Você - Onze:20 Manteve-se 3.171 exibições
  7. Só Os Loucos Sabem - Charlie Brown Jr. Manteve-se 3.013 exibições
  8. Tempo Perdido - Legião Urbana Manteve-se 2.451 exibições
  9. Fui Fiel - Gusttavo Lima Manteve-se 2.434 exibições
  10. Na Linha do Tempo - Victor e Leo Manteve-se 2.183 exibições
  1. Jorge e Mateus- Manteve-se 22.974 exibições
  2. Legião Urbana- Manteve-se 20.295 exibições
  3. Luan Santana- Manteve-se 17.553 exibições
  4. Charlie Brown Jr.- Manteve-se 17.249 exibições
  5. Fernandinho- Manteve-se 14.873 exibições
  6. Thalles Roberto- Manteve-se 11.307 exibições
  7. Católicas- Manteve-se 10.786 exibições
  8. Victor e Leo- Manteve-se 10.519 exibições
  9. Gusttavo Lima- Manteve-se 10.295 exibições
  10. Aline Barros- Manteve-se 10.226 exibições
Exibir acordes »

Cifras e tabs

Fórum Cifra Club

Aprenda

Cifra Club News

Mais Serviços Cifra Club ID

Studio Sol

©1996 - 2014 Cifra Club · o primeiro, maior e mais acessado do Brasil · 329 mil músicas · 5.9 milhões pessoas cadastradas

publicidade
fechar