Eucalipto

Jads e Jadson

 Jads e Jadson Compositor: Jads e Jadson
Tom: B
		
Intro: B  F#  B  F#  B

solo:


E|---------------------------------------------------------------------------|
B|---------------------------------------------------------------------------|
G|---------------------------------------------------------------------------|
D|--------6----4------6----4-----------------------------------------------|
A|---2------------------------6--------6-7-6-7-8-9------------------------------|
E|--------------------------------9-------------------------------------------|



E|---------------------------------------------------------------------------|
B|---------------------------------------------------------------------------|
G|---------------------------------------------------------------------------|
D|--------6----4------6----4-----------------------------------------------|
A|---2------------------------6--------6-7-6-7-8-9------------------------------|
E|--------------------------------9-------------------------------------------|


B                                      F#
O trem ta feio o trem ta ruim pro meu lado
                                              B
Ando sem um tostão furado e a mulher quer me largar
B                                    F#
Já estou pensando em ignorar a minha idade
                                         B
Entra até na faculdade,e começar a trabalhar

B                                       F#
Um jeito fácil de resolver os meus problemas
                                                B
Era ganhar na mega sena mais estou cansado de jogar
B                              F#
Vou dar um jeito procurar a solução
                                          B
Pra ganhar seu coração e você eu conquistar

Refrão:
B
Eu vou plantar uns eucalipto que é pra vê se fico rico,
                 F#
E você se apaixonar
                                                  E
Eu vou fazer um planejamento pensando no investimento
F#                   B
Pra mais tarde nos casar

B                                 F#
Fiquei sabendo que demoro uns 5 anos
                                    B
E com esse tempo todo comecei desanimar
B                                       F#
Dali a pouco você já não vai estar tão nova
                                             B
E casar com mulher velha minha mãe não vai gostar
B                                 F#
O meu problema não vai ser o seus 40
                                        B
Mais vai ser a mulherada querendo me agarrar

B
Quando eu cortar os eucaliptos e perceber que eu fiquei rico
                    F#
Essa história vai mudar
                                      E
Vai me subir a ambição vou querer só mulherão
  F#            B
E você eu vou largar
55.203 exibições

Comentários 16

  • LUCAS LUCAS: Postado em 04/08/2014 12:37

    e ae pessoal tirei o solo ae se tiverem alguma critica construtiva deixa ai sua resposta por favor vlw

    • Emanuel Emanuel: Postado em 18/08/2014 18:08

      Comentário removido

  • ypsilon.aires ypsilon.aires: Postado em 01/10/2013 18:20

    ritmo bbccbc

  • igorcregoferreira igorcregoferreira: Postado em 29/08/2013 11:22

    foda, colocar compositor errado é paia eim, arrumem ai neh?

  • abaete1 abaete1: Postado em 27/10/2012 15:17

    musica de matheus lacerda!!troquem ai!!

  • abaete1 abaete1: Postado em 27/10/2012 15:16

    troque o compositor ai para matheus lacerda!! obrigado

  • R.ALVES R.ALVES: Postado em 06/10/2012 12:41

    Essa música é de autoria do Matheus Lacerda, corrige ai.

  • rafaelbtos rafaelbtos: Postado em 15/09/2012 22:12

    Coloquem no Tom B,acho que fica melhor

  • mialmeida mialmeida: Postado em 06/09/2012 12:54

    ninguém sabe o solo ????

Exibindo 10 de 16 comentários Mostrar mais ver todos »
Composição: Sabe quem é o compositor? Envie pra gente. Contribuição: ebert_violao Correções: LUCAS , Fabrica e mais 9 »
Exibir acordes »
publicidade
fechar