Amor sem Compromisso

João Victor e Raphael

Sem foto do João Victor e Raphael
Tom: C
		
galera  me  prdoa  pelo solo aii eu so faço  aulas  3 meses  mais  acho que  fico aceitavel!!  by  peps


e|---------------------------------------------------------
B|---------------------------------------------------------
G|--9^-3/5---9^-7---9^--3/5--5/7--7/9--7-------------------
D|---------------------------------------------------------
A|---------------------------------------------------------
E|-----^^^= levanta a corda -------------------------------



e|-----------------------------------------------------------
B|-------------------------------------12-14-14/16-14--------
G|-9^-3/5---9^-7---9^--3/5--5/7--7/9------------------14/16--
D|-----------------------------------------------------------
A|-----------------------------------------------------------
E|-----------------------------------------------------------


C         G        Am 
Todo dia é assim  
                  Em                                    
Não sei o que elas viram em mim 
Dm          F                 G 
Qualquer hora vem me procurar 
C               G           Am 
Eu sei o que eu faço é errad 
                    Em         F 
Não tenho culpa de ser safado 
Dm                G                
Se a natureza e que me fez assim 
C             G             Am 
Ouça amigo o que eu te falo 
                Em          F 
Mulher  é meu ponto fraco 
Dm              G      G 
Sem  elas não sei  viver 

REFRÂO:
              Am 
Pode me abraçar  
            Em      
Pode me beijar 
               F                 G                           
So não pode deixar esse fogo apagar 
             C 
Vem me provocar 
               G 
Eu vou te ensinar 
              F                   G                            
Amor sem compromisso o bixo vai pegar 


e|-9-7--------------------------
B|------9/11-5-77/9-7-5---------
G|------------------------------
D|------------------------------ (...)
A|------------------------------
E|------------------------------


C         G        Am 

Todo dia é assim  
                  Em                                    
Não sei o que elas viram em mim 
Dm          F                 G 
Qualquer hora vem me procurar 
C               G           Am 
Eu sei o que eu faço é errad 
                    Em         F 
Não tenho culpa de ser safado 
Dm                G                
Se a natureza e que me fez assim 
C             G             Am 
Ouça amigo o que eu te falo 
                Em          F 
Mulher  é meu ponto fraco 
Dm              G      G 
Sem  elas não sei  viver 

REFRÂO 
              Am 
Pode me abraçar  
            Em      
Pode me beijar 
               F                 G                           
So não pode deixar esse fogo apagar 
             C 
Vem me provocar 
               G 
Eu vou te ensinar 
              F                   G                            
Amor sem compromisso o bixo vai pegar             

C 
O bixo já pego 
                G 
Voce se apaixonou  
             F  F   G                
Após ter vivido oo o uma noite de amor 
                C  
Uma noite de amor
44.068 exibições

Comentários 0

Composição: Joao Victor/Raphael/Jhone
Esse não é o compositor? Avise-nos.
Contribuição: oliver_luan Correções: peps e mais 1 »
Consegui tocarAinda não conseguiram tocar essa música. Seja o primeiro!
    Não consegui tocar
    Exibir acordes »
    publicidade
    fechar